Oops, an error
Loading. Please wait.

Beyond Recognition Tab

version 2
version 2

Whole song

Interactive

801 views 3 this week
no commentswrite comment
1 2 3 4 5
please rate
add to favorites
launch autoscroll
font size
0
reset
how to read this tab
guitar tuner
Autoscroll
slow
fast
+/-
esc
set tempo
stop
Help us to improve Ultimate-Guitar.com Take our survey!
×
Difficulty
Tuning
advanced
D A D G B E
Song: Beyond Recognition
Band: Threat Signal

Tuning: Drop D (DADGBE)

Well here's the second version of this tab. It's more compete and accurate than the last
I added the first solo and the riff under it, which is 99% accurate. Verse 1&2 still
some working on but i'll get it done eventually, and I still need to add the second 
Please rate and/or comment!

Intro
|-----------------------------------------------------|
|-----------------------------------------------------|
|-----------------------------------------------------|
|---------------------------------------------5-3-0-1-|
|---------5-------5-----------5-------5-------5-3-0-1-|
|-0-0-0-------0-------0-0-0-------0-------0---5-3-0-1-|

Verse 1&2
|---------------------------|------------------------|
|---------------------------|------------------------|
|---------------------------|------------------------|
|-4-4---4---4---4---4---4-4-|-3-3---3--3--3--3---3-3-|
|-4-4---4---4---4---4---4-4-|-3-3---3--3--3--3---3-3-|
|-4-4---4---4---4---4---4-4-|-3-3---3--3--3--3---3-3-|

Breakdown
|---------------------------------------------------------------------------|
|---------------------------------------------------------------------------|
|---------------------------------------------------------------------------|
|---------------------------------------------------------------------------|
|---------------------------------------------------------------------------|
|-7/8/7--0--7--0--7/8/7--0--7--2-3-0-2--0--7/8/7--0--7--0--7/8/7-7/8/7--0---|

---------------|
---------------|
---------------|
---------------|
---------------|
7/8/7--8--5--7-|

|---------------------------------------------------------------------------|
|---------------------------------------------------------------------------|
|---------------------------------------------------------------------------|
|---------------------------------------------------------------------------|
|---------------------------------------------------------------------------|
|-7/8/7--0--7--0--7/8/7--0--7--2-3-0-2--0--7/8/7--0--7--0--7/8/7-7/8/7--0---|

----------------|
----------------|
----------------|
----------------|
----------------|
7/8/7--0--5/6/5-|

Breakdown 2
|-------|------------------------------------------------------|
|-------|------------------------------------------------------|
|-------|------------------------------------------------------|
|-------|--------------------------------------------5-3-0-2-0-|
|-5/6/5-|-------------5/6/5---9/10/9---5/6/5-5/6/5---5-3-0-2-0-|
|-------|-0-0-0-0-0-0-------0--------0---------------5-3-0-2-0-|

|-------------------------------------------------------------------------|
|-------------------------------------------------------------------------|
|-------------------------------------------------------------------------|
|-------------------------------------------------------------------------|
|-------------5/6/5---9/10/9---5/6/5-5/6/5--------------------------------|
|-0-0-0-0-0-0-------0--------0--------------7-5-7-7/8/7-5/7-0-2-3-0-0/1/0-|

Verse 3
|-----------------------------------------------------------------------|
|-----------------------------------------------------------------------|
|-----------------------------------------------------------------------|
|-----------------------------------------------------------------------|
|-5-----5---6---5---3/5---5---6---5-----6---3/5---5---10-12-13p12-10h12-|
|---0-0---0---0---0-----0---0---0---0-0---0-----0---0-------------------|

|--------------------------------------------------------------------------|
|--------------------------------------------------------------------------|
|--------------------------------------------------------------------------|
|--------------------------------------------------------------------------|
|-12-----12---13---12---10/12---12---10---9----6/9--6---5---3/5---6---9/10-|
|----0-0----0----0----0-------0----0----0---0-----0---0---0-----0---0------|

|-----------------------------------------------------------------|
|-----------------------------------------------------------------|
|-----------------------------------------------------------------|
|-----------------------------------------------------5-7-8-7-5-7-|
|-5-----5---6---5---3/5---5---6---5-----6---3/5---5---------------|
|---0-0---0---0---0-----0---0---0---0-0---0-----0---0-------------|

|-------------------------------------------------------------------|
|-------------------------------------------------------------------|
|-------------------------------------------------------------------|
|-------------------------------------------------------------------|
|-12-----12---13---12---10/12---12---10---9----6/9--6---5---3/5---6-|
|----0-0----0----0----0-------0----0----0---0-----0---0---0-----0---|

|------|---------------|----------------------------------|------------------|
|------|---------------|----------------------------------|------------------|
|------|---------------|----------------------------------|-6h7p6---9-7-6----|
|-3--5-|-7--7--8--8--5-|-8/7--5/7--8/7--5/7--11/12/11/8/7-|-------7----------|
|-3--5-|-7--7--8--8--5-|----------------------------------|------------------|
|-3--5-|-7--7--8--8--5-|----------------------------------|------------------|

----------------------|-------|
----------------------|-------|
6h7p6---9-7-6---------|-------|
------8-------8p0-5h7-|-8--10-|
----------------------|-8--10-|
----------------------|-8--10-|

Chorus
|----------------|
|----------------|
|----------------|
|-0---5---8---10-|
|-0---5---8---10-|
|-0---5---8---10-|

Solo 1
|---------------------------------------------------------------------------|
|-----------------------------------------------------------------------15--|
|-11-12-14-15-14-12-11---17-------17-----------12--11/12--12/11---11-12-----|
|---------------------------16-16----16-15-13-------------------------------|
|---------------------------------------------------------------------------|
|---------------------------------------------------------------------------|

--------------------------13-13--------------13-13--------------------------|
--13-13----16----13-15-------------15--13-------------13-15-----15/\-13-15--|
12-------12----12-------12-------12--------12-------12-------12-------------|
----------------------------------------------------------------------------|
----------------------------------------------------------------------------|
----------------------------------------------------------------------------|

---|
15-|
---|
---|
---|
---|


|---------------------------------------------------------14/\--------------|
|-11-13-13-10-11-11-10-11-10--------------15---15-13-11---------15-13-15----|
|----------------------------12--12-----------------------------------------|
|---------------------------------------------------------------------------|
|---------------------------------------------------------------------------|
|---------------------------------------------------------------------------|

14/\------17/\------------17/\------------17/\------------17/\-|
----15--------19-18-19--------19-20-20--------18-20-20---------|
---------------------------------------------------------------|
---------------------------------------------------------------|
---------------------------------------------------------------|
---------------------------------------------------------------|


|-----------------------------------------------|
|-18-18h20--15h18--13h15--11h13--10-11-10-8--10-|
|-----------------------------------------------|
|-----------------------------------------------|
|-----------------------------------------------|
|-----------------------------------------------|

Riff under solo
|-----------------------------------------------------------------------|
|-----------------------------------------------------------------------|
|-----------------------------------------------------------------------|
|-----------------------------------------------------------------------|
|-5-----5---6---5---3/5---5---6---5-----6---3/5---5---10-12-13p12-10h12-|
|---0-0---0---0---0-----0---0---0---0-0---0-----0---0-------------------|

|-------------------------------------------------------------------------|
|-------------------------------------------------------------------------|
|-------------------------------------------------------------------------|
|-------------------------------------------------------------------------|
|-10-----12---13---10---10h12---12---10---8---6h8---6---5---3h5-----------|
|----0-0----0----0----0-------0----0----0---0-----0---0---0-----0-7-8-7-5-|
Suggest correction
Give kudos to tab author, rate the tab!
1 2 3 4 5
comments
print report bad tab
guest
You may want to rate the tab now too:
select rating
Wanna post a correction for this tab? Suggest correction