Oops, an error
Loading. Please wait.

Counterbalance Tab

version 2
version 2

Solo

Interactive

3,123 views 1 this week
no commentswrite comment
1 2 3 4 5
please rate
add to favorites
launch autoscroll
font size
0
reset
how to read this tab
guitar tuner
Autoscroll
slow
fast
+/-
esc
set tempo
stop
Help us to improve Ultimate-Guitar.com Take our survey!
×
Author
Difficulty
Tuning
novice
C G C F A D
THREAT SIGNAL
COUNTERBALANCE
SOLO 2


2:53-3:20




|---------------------------------------------------------------------|
|---—-----------------------7----------2-4--------4(1/2)-----5b-------|
|------3h4p3----6b-6b-4b-6b---6b-4-3-4------4-6-4--------3-4----------|
|--4h6------4-6-------------------------------------------------------|      
|---------------------------------------------------------------------|
|---------------------------------------------------------------------|

|---------------4/6-9-6-6(1/2)-6(1/2)-6-4---4b—6(1/2)-6(1/2)--|
|---5—-4-5-4--------------------------------7b----------------|
|------------4------------------------------------------------|
|-------------------------------------------------------------|      
|-------------------------------------------------------------|
|-------------------------------------------------------------|

|-4---4-7-7-4------7-7-4---4-4-------------------------------|
|---7—--------7-7b-------7-----7-4--4-7-7-4---4-4-3----3-----|
|----------------------------------7--------7-------6----4b--|
|------------------------------------------------------------|      
|------------------------------------------------------------|
|------------------------------------------------------------|

|-------------------|-14fb---------14fb--xx—14fb--14-14(1/2)------|
|---—---------------|-14fb---14-12-14fb--xx—14fb-----14(1/2)------|
|------------4b-----|--------------------xx-----------------------|
|--6-4-6--------6---|---------------------------------------------|      
|--------4-6--------|---------------------------------------------|
|-------------------|---------------------------------------------|

|------------------------------------|
|-14-12-13(1 1/2)—12-------12--------|
|--------------------11-13-11--------|
|------------------------------------|      
|------------------------------------|
|------------------------------------|

|----14-11-----------11-9-----------------------------------------|
|-12--—----14-12----------12-9----12-12-9----14-14-12-16-16-14----|
|----------------13------------11---------11----------------------|
|-----------------------------------------------------------------|      
|-----------------------------------------------------------------|
|-----------------------------------------------------------------|

|-14-14-11----16-16-14/11-19-14-18-19-18-14-19-14-19-23-19-14-19-14-18-19--|
|---—------14--------------------------------------------------------------|
|--------------------------------------------------------------------------|
|---------------------------------------------------------------------|      
|--------------------------------------------------------------------------|
|--------------------------------------------------------------------------|

|-18-14-21-14-16-19-18-14-19-14----16-----16--------|
|---—---------------------------19----19b----19-16--|
|---------------------------------------------------|
|---------------------------------------------------|      
|---------------------------------------------------|
|---------------------------------------------------|

|---------16-------------16-16-------18-18(1/2)--16---|
|---—--16----19-16-16fb--------19-16------------------|
|-18fb-------------18fb-------------------------------|
|-----------------------------------------------------|      
|-----------------------------------------------------|
|-----------------------------------------------------|

|-------16-21-18(1/2)-16-21-22-21-19---19-----|
|-19fb--—---------------------------21----21--|
|---------------------------------------------|
|---------------------------------------------|      
|---------------------------------------------|
|---------------------------------------------|

Suggest correction new What's this?
You can suggest a correction to this tab. Community and Mods will review your correction and vote to approve or reject it.
comments
We did not receive enough feedback on this tab! Please rate:
print report bad tab
1 2 3 4 5
guest
You may want to rate the tab now too:
select rating
Please do not post tabs as comments. Select "correction" instead!