Oops, an error
Loading. Please wait.

Late Nite Tip Tab

version 1
version 1

Whole song

Interactive

1,970 views 9 this week
1 commentread comment
1 2 3 4 5
please rate
add to favorites
launch autoscroll
font size
0
reset
how to read this tab
guitar tuner
Tab Pro tools
  • play this tab
  • loop segment
  • change instrument
  • show fretboard
  • metronome
×
Best way to learn
"Late Nite Tip"
Autoscroll
slow
fast
+/-
esc
set tempo
stop
Contributor
Difficulty
intermediate
-------------------------------------------------------------------------------
                             Late Nite Tip - Three Six Mafia
-------------------------------------------------------------------------------
Tabbed by: Nick Yates
Email: yates119@yahoo.com

Tuning: Standard (EADGBe)

Ok so this is hip hop song and this first part is the piano part that plays all 
the song arranged for guitar.

e|--------------------------------------------------------------------------|
B|------------------------------8--7--5-----3-----0-------------------------|
G|------0--5--2--4--0--------------------5-----2----------------------------|
D|---------------------4--0-------------------------------------------------|
A|---------------------------3----------------------------------------------|
E|---0----------------------------------------------------------------------|
That's it! Just repeat, repeat, and repeat throughout the song.

Part 2 (Rock Version)
 - Ok now this part is the same only i've added a little spice to it to give it a rock 
because we all love mash-ups right?...riiight! ENJOY!
e|-----------------------------3--------------------------------------------|
B|-----------------------------3--5/8--7b8--5-----3\----0-------------------|
G|------0--5--2--4--0----------5---------------5-----2----------------------|
D|---2-----------------4b5--0--5--------------------------------------------|
A|---2-------------------------3--------------------------------------------|
E|---0-------------------------3--------------------------------------------|


-Nick Yates
comments
We did not receive enough feedback on this tab! Please rate:
print report bad tab
1 2 3 4 5
1 comment total.
0 reply
blistabass wrote on January 18 2009, 12:24 am

e|--------------------------------------------------------------------------|
B|------------------------------8--7--5----------0-------------------------|
G|------0--5--2--4--0--------------------4--5--2----------------------------|
D|---------------------4--0-------------------------------------------------|
A|---------------------------3----------------------------------------------|
E|---0----------------------------------------------------------------------|

I want to post or [tab]
guest
You may want to rate the tab now too:
select rating
Please do not post tabs as comments. Select "correction" instead!