Oops, an error
Loading. Please wait.

Rainbow Colors tab

1,584 views 1 this week
1 commentread comment
1 2 3 4 5
3 more votes to show rating
add to favorites
×
Save as Personal and add changes to this tab that will be seen only by you. Learn more ›
×
You can save this tab as Personal to edit and correct it or add notes. All changes will be seen only by you. Learn more »
launch autoscroll
font size
0
reset
how to read this tab
guitar tuner
edit
Autoscroll
slow
fast
+/-
esc
set tempo
stop
Song: Rainbow Colors
Artist: Three 6 Mafia
Album: Da Unbreakables
Tuning : Drop A (AEADGB)

a---------------------------------------|
e---------------------------------------|
a--------1-0-----1-0-----1-0-----1-0----|
d------3-------3-------3-------3--------|
g----3-------3-------3-------3----------|
b---------------------------------------|
repeat


            
            
Suggest correction
Creating personal tab
Creating personal tab
You can edit any tab online and save it as your Personal.

You can edit, replace or remove any tab part or add personal notes – all changes will be seen only by you.

Personal tabs can be accessed anytime from any device, even offline.
Learn more »
Give kudos to tab author, rate the tab!
1 2 3 4 5
comments
print report bad tab
1 comment total.
0 reply
codyoldfield_ 10 Jan 13, 2015 03:46 AM

Great tab Bro or Mama but some guitars can't handle that drop A tuning unless you got a 7String guitar. I got a Fender Stratocaster USA and drop A is too loose.
but here's me:
e---------------------------------------| D
b---------------------------------------| A
g---------------------------------------| F
d--------1-0-----1-0-----1-0-----1-0----|OR C
a------3-------3-------3-------3--------| G
E----3-------3-------3-------3----------| D
This sounds better because they're obviously in the studio making this beat with keyboards and all kinds of shiz. But, I would also try the tab I gave you here in a whole step down tuning: DGCFAD (sounds deeper/lower) DeftonesFOELIFE Bestband ever wish a new record would come out the latest Koi No Yokan had great songs but it was the least appealing to my, just my opinion, Im a loyal fan and will buy the next one too. Come on Chino get all drugged out again and make some badass music!!hahajk

guest
You may want to rate the tab now too:
select rating
Wanna post a correction for this tab? Suggest correction