Oops, an error
Loading. Please wait.

Animal I Have Become Bass Tab

version 1
310,006 views 294 this week
51 commentsread comments
1 2 3 4 5
x 110
add to favorites
launch autoscroll
font size
0
reset
guitar tuner
Autoscroll
slow
fast
+/-
esc
set tempo
stop
Help us to improve Ultimate-Guitar.com Take our survey!
×
Author
-------------------------------------------------------------------------------
                Animal I Have Become - Three Days Grace
-------------------------------------------------------------------------------

Tabbed By :  rahsan
Tuning: C G C F

[Intro]

F|------------------|           |------------------|
C|------------------|           |------------------|
G|-----------7------|x11        |-----------7------|
C|-0-0---7-8---8-7--|           |-0-0---7-8---8----|


[Verse]

F|-----------------|---------------|------------------|-----------------|
C|-----------------|---------------|------------------|-----------------|
G|-----------------|---------------|-----------7------|-----------7-----|x3
C|-3-3---3-3-3---3-|3-3---3-3-3--5-|-0-0---7-8---8-7--|-0-0---7-8---8---|

F|-----------------|---------------|-----------------|-----------------|
C|-----------------|---------------|-----------------|-----------------|
G|-----------------|---------------|-----------------|-----------------|
C|-3-3---3-3-3---3-|3-3---3-3-3--3-|-5-5---5-5-5---5-|-8---------------|


[Chorus]

F|-----------|----------------|-------------|--------------|
C|-----------|----------------|-------------|--------------|
G|-------3---|--------0--0-1--|--------3----|--------------|
C|---0-------|---3------------|---0---------|---3----5-5-3-|

F|-----------|----------------|-------------|--------------|
C|-----------|----------------|-------------|--------------|
G|-------3---|--------0--0-1--|--------3----|--------------|
C|---0-------|---3------------|---0---------|---3----5-4-3-|

F|------------------|------------------|
C|------------------|------------------|
G|-----------7------|-----------7------|
C|-0-0---7-8---8-7--|-0-0---7-8---8----|


[Verse]

F|-----------------|---------------|------------------|-----------------|
C|-----------------|---------------|------------------|-----------------|
G|-----------------|---------------|-----------7------|-----------7-----|x3
C|-3-3---3-3-3---3-|3-3---3-3-3--5-|-0-0---7-8---8-7--|-0-0---7-8---8---|

F|-----------------|---------------|-----------------|-----------------|
C|-----------------|---------------|-----------------|-----------------|
G|-----------------|---------------|-----------------|-----------------|
C|-3-3---3-3-3---3-|3-3---3-3-3--3-|-5-5---5-5-5---5-|-8---------------|


[Chorus]

F|-----------|----------------|-------------|--------------|
C|-----------|----------------|-------------|--------------|
G|-------3---|--------0--0-1--|--------3----|--------------|
C|---0-------|---3------------|---0---------|---3----5-5-3-|

F|-----------|----------------|-------------|--------------|
C|-----------|----------------|-------------|--------------|
G|-------3---|--------0--0-1--|--------3----|--------------|
C|---0-------|---3------------|---0---------|---3----5-4-3-|

F|------------------|------------------|
C|------------------|------------------|
G|-----------7------|-----------7------|
C|-0-0---7-8---8-7--|-0-0---7-8---8----|

F|-----------|----------------|-------------|--------------|
C|-----------|----------------|-------------|--------------|
G|-------3---|--------0--0-1--|--------3----|--------------|
C|---0-------|---3------------|---0---------|---3----5-4-3-|

F|------------------|
C|------------------|
G|-----------7------|
C|-0-0---7-8---8-7--|


[Chorus]

F|-----------------|------------------|-----------------|-----------------|
C|-----------------|------------------|-----------------|-----------------|
G|-----------------|-----------7------|-----------------|-----------------|x2
C|-8-8---8-8-8---8-|-5-5---5-8---8-7--|-0-0---0-0-0---0-|-3-3---3-3-3---3-|

F|-----------------|-------------------|
C|-----------------|-------------------|
G|-----------------|----------7--------|
C|-8-8---8-8-8---8-|-5--7--8-----8--7--|

F|------------------|           
C|------------------|           
G|-----------7------|x8 
C|-0-0---7-8---8-7--|

4 measures of rest


[Chorus]

F|-----------|----------------|-------------|--------------|
C|-----------|----------------|-------------|--------------|
G|-------3---|--------0--0-1--|--------3----|--------------|
C|---0-------|---3------------|---0---------|---3----5-5-3-|

F|-----------|----------------|-------------|--------------|
C|-----------|----------------|-------------|--------------|
G|-------3---|--------0--0-1--|--------3----|--------------|
C|---0-------|---3------------|---0---------|---3----5-4-3-|

F|------------------|------------------|
C|------------------|------------------|
G|-----------7------|-----------7------|
C|-0-0---7-8---8-7--|-0-0---7-8---8----|

F|------------------|           
C|------------------|           
G|-----------7------|x6 
C|-0-0---7-8---8-7--|

F|--------------------|
C|--------------------| 
G|-----------7--------|x4 
C|--0--7--8-----8--7--| 

F|--------------|
C|--------------|
G|--------------|
C|--0-----------|



************************************

| x  Dead note

************************************
Suggest correction
comments
print report bad tab
51 comments total. Showing first comments. show 1 bad comment
+3 reply
sicfreak91 291 Apr 28, 2006 09:32 PM

a little mess i suppose, lol .. but really good for the most part

0 reply
sicfreak91 291 Apr 28, 2006 09:33 PM

messy**

guest
You may want to rate the tab now too:
select rating
Wanna post a correction for this tab? Suggest correction