Oops, an error
Loading. Please wait.

Animal I Have Become Bass Tab

version 2
13,740 views 3 this week
2 commentsread comments
1 2 3 4 5
worth learning
x 4
add to favorites
launch autoscroll
font size
0
reset
guitar tuner
Tab Pro tools
  • play this tab
  • loop segment
  • change instrument
  • show fretboard
  • metronome
Autoscroll
slow
fast
+/-
esc
set tempo
stop
Contributor
Tuning
C G C F A D
'ANIMAL I HAVE BECOME'
As heard on album, "One-X" (2006)
Words & Music; Three Days Grace
Tabbed and Arranged by; Michael Hoel (mikehoel-gdae@hotmail.com) 

To properly match recording, tune Bass to "Drop C" tuning;
  1st String = F
  2nd String = C
  3rd String = G
  4th String = C

Moderately; 123/bpm.

I. Introduction [0:00]
(Play Bars 1-4, Twice)

  C5                                                              
1|---------------|---------------|---------------|---------------|
 |---------------|---------------|---------------|---------------|
 |----------7----|----------7----|----------7----|----------7----|
 |0-0-R-7-8---8-7|0-0-R-7-8---8-7|0-0-R-7-8---8-7|0-0-R-7-8---8-7|
  E E E E E E E E E E E E E E E E E E E E E E E E E E E E E E E E

  Csus4
9|---------------|---------------|---------------|-------------||
 |---------------|---------------|---------------|-------------||
 |----------7----|----------7----|----------7----|----------7--||
 |0-0-R-7-8---8-7|0-0-R-7-8---8-7|0-0-R-7-8---8-7|0-0-R-7-8---8||
  E E E E E E E E E E E E E E E E E E E E E E E E E E E E E E E

II. First Verse [0:24]
(Play Bars 13-16, Three Times)

   Eb5                              C5              Cm C5
13|---------------|----------------|---------------|--------------|
  |---------------|----------------|---------------|--------------|
  |---------------|----------------|----------7----|-----------7--|
  |3-3-R-3-3-3-R-3|3-3-R-3-3-3-R-5b|0-0-R-7-8---8-7|0--0-R-7-8---8|
  |E E E E E E E E|E E E E E E E E |E E E E E E E E|E  E E E E E Q| 

   Eb5                             F5              Ab5  
25|---------------|---------------|---------------|---||
  |---------------|---------------|---------------|---||
  |---------------|---------------|---------------|---||
  |3-3-R-3-3-3-R-3|3-3-R-3-3-3-R-3|5-5-R-5-5-5-R-5|8--||
  |E E E E E E E E|E E E E E E E E|E E E E E E E E|W  ||

III. First Chorus [0:56]

   C5  Bb5         Eb5 G5  Ab5 C5  Bb5         Eb5 F5  Eb5 D5
29|---------------|-----------|---------------|--------------|
  |---------------|-----------|---------------|--------------|
  |---------------|-----------|---------------|--------------|
  |0-0-10-10-10-10|3-3-7-7-8--|0-0-10-10-10-10|3-3-5-5-3---2-|
   Q Q E  E  E  E  Q Q Q E E   Q Q E  E  E  E  Q Q E E E   E  

   C5  Bb5         Eb5 G5  Ab5 C5  Bb5         Eb5 F5 Eb5 D5
33|---------------|-----------|---------------|-------------|
  |---------------|-----------|---------------|-------------|
  |---------------|-----------|---------------|-------------|
  |0-0-10-10-10-10|3-3-7-7-8--|0-0-10-10-10-10|3-3-5--3---2-|
   Q Q E  E  E  E  Q Q Q E E   Q Q E  E  E  E  Q Q QT QT  QT

   C5
37|---------------|-------------||
  |---------------|-------------||
  |----------7----|----------7--||
  |0-0-R-7-8---8-7|0-0-R-7-8---8||
   E E E E E E E E E E E E E E Q

IV. Second Verse [1:16]
(For Bars 39-54, Repeat First Verse)

V. Second Chorus [1:48]
(Play Bars 55-67, Twice)

   C5  Bb5         Eb5 G5  Ab5 C5  Bb5         Eb5 F5  Eb5 D5
55|---------------|-----------|---------------|--------------|
  |---------------|-----------|---------------|--------------|
  |---------------|-----------|---------------|--------------|
  |0-0-10-10-10-10|3-3-7-7-8--|0-0-10-10-10-10|3-3-5-5-3---2-|
   Q Q E  E  E  E  Q Q Q E E   Q Q E  E  E  E  Q Q E E E   E |

   C5  Bb5         Eb5 G5  Ab5 C5  Bb5         Eb5 F5 Eb5 D5 
63|---------------|-----------|---------------|-------------|
  |---------------|-----------|---------------|-------------|
  |---------------|-----------|---------------|-------------|
  |0-0-10-10-10-10|3-3-7-7-8--|0-0-10-10-10-10|3-3-5--3---2-|
   Q Q E  E  E  E  Q Q Q E E   Q Q E  E  E  E  Q Q QT QT  QT 

   C5
67|---------------||
  |---------------||
  |----------7----||
  |0-0-R-7-8---8-7||
   E E E E E E E E

VI. Bridge [2:12]
(Play Bars 68-71, Twice)
(Play Bar 80-82, Three Times)  

   Ab5             F5              C5              Eb5       
68|---------------|---------------|---------------|---------------|
  |---------------|---------------|---------------|---------------|
  |---------------|----------7----|---------------|---------------|
  |8-8-R-8-8-8-R-8|5-5-R-7-8---8-7|0-0-R-0-0-0-R-0|3-3-R-3-3-3-R-3|
   E E E E E E E E E E E E E E E E E E E E E E E E E E E E E E E E

   Ab5             Cm                 C5  
76|---------------|------------------|--|---|
  |---------------|------------------|--|---|
  |---------------|---------7--------|--|---|
  |8-8-R-8-8-8-R-8|0--7--8-----8--7--|0-|(0)|
   E E E E E E E E QT QT QT QT QT QT  W   W  

   C5
80|---------------|---------------|---------------||
  |---------------|---------------|---------------||
  |----------7----|----------7----|----------7----||
  |0-0-R-7-8---8-7|0-0-R-7-8---8-7|0-0-R-7-8---8-7||
   E E E E E E E E E E E E E E E E E E E E E E E E

VII. Third Chorus [2:55]

   C5 Bb5 Eb5 G5 Ab5 C5 Bb5 Eb5 F5 Eb5 D5
86|------|----------|------|-------------|
  |------|----------|------|-------------|
  |------|----------|------|-------------|
  |R-----|(R)-------|(R)---|(R)----------|
   W       W          W      W
     
   C5  Bb5         Eb5 G5  Ab5 C5  Bb5         Eb5 F5  Eb5 D5
90|---------------|-----------|---------------|--------------|
  |---------------|-----------|---------------|--------------|
  |---------------|-----------|---------------|--------------|
  |0-0-10-10-10-10|3-3-7-7-8--|0-0-10-10-10-10|3-3-5-5-3---2-|
   Q Q E  E  E  E  Q Q Q E E   Q Q E  E  E  E  Q Q E E E   E  

   C5  Bb5         Eb5 G5  Ab5 C5  Bb5         Eb5 F5 Eb5 D5
94|---------------|-----------|---------------|-------------|
  |---------------|-----------|---------------|-------------|
  |---------------|-----------|---------------|-------------|
  |0-0-10-10-10-10|3-3-7-7-8--|0-0-10-10-10-10|3-3-5--3---2-|
   Q Q E  E  E  E  Q Q Q E E   Q Q E  E  E  E  Q Q QT QT  QT

VIII. Ending [3:10]
(Play Bars 98-103, Twice)

   Csus4
98|---------------|---------------|---------------|
  |---------------|---------------|---------------|
  |----------7----|----------7----|----------7----|
  |0-0-R-7-8---8-7|0-0-R-7-8---8-7|0-0-R-7-8---8-7|
   E E E E E E E E E E E E E E E E E E E E E E E E

104|-----------------|-----------------|-----------------|-----------------|
   |-----------------|-----------------|-----------------|-----------------|
   |---------7-------|---------7-------|---------7-------|---------7-------|
   |0--7--8-----8--7-|0--7--8-----8--7-|0--7--8-----8--7-|0--7--8-----8--7-|
    QT QT QT QT QT QT QT QT QT QT QT QT QT QT QT QT QT QT QT QT QT QT QT QT
    
108|---|---||
   |---|---||
   |---|---||
   |0--|(0)||
    w    w

TABLATURE NOTATION GUIDE
  I. Symbol Terminology
     Accompanying Chords (Shown above tablature lines) 
     Bar Numbers (Top-left corners of tablature lines)
     Tablature lines;
       |-| G-String
       |-| D-String
       |-| A-String
       |-| E-String
       |w| Note Value Line
      #/bpm. (Beats-per-minute)

  II. Note Values (Placed below tablature lines)
     W   = Whole Note (4/4)
     Q   = Quarter Note (1/4)
     QT  = Quarter-Note Triplet (1/6)
     E   = Eighth Note (1/8)
     (#) = Tied note
     R   = Rest

Any Questions, Comments or Concerns, please contact me via the 
aforementioned e-mail address, above. 
comments
print report bad tab
2 comments total.
0 reply
Destinee wrote on January 7 2007, 02:59 pm

ur a hero now i know how fast to go thnx

0 reply
lauren-nine-93 wrote on January 23 2008, 10:16 pm

i am sort of begginer and i love this tab!
thank u soooooo much!!!

I want to post or [tab]
guest
You may want to rate the tab now too:
select rating
Please do not post tabs as comments. Select "correction" instead!