Oops, an error
Loading. Please wait.

Animal I Have Become Tab

version 2
version 2
577,463 views 621 this week
235 commentsread comments
1 2 3 4 5
excellent!
x 527
add to favorites
launch autoscroll
font size
0
reset
how to read this tab
guitar tuner
Tab Pro tools
  • play this tab
  • loop segment
  • change instrument
  • show fretboard
  • metronome
Autoscroll
slow
fast
+/-
esc
set tempo
stop
Contributor
Tuning
C G C F A D
Three Days Grace - "Animal I have Become"
Album: One - X

Tabbed by: SICfreak91

Figured this song out with a acoustic guitar. Not a hard song to play. I'm not 100% sure
correct, but I tried hard. TDG seem to use different tunings ( dropped D, D flat,
C) in there past songs, so your never really sure what to use with them


 UPDATE (4/10/06): i changed the verse, pre-chorus, and chorus slightly ... i would like
to give credit to Jaames ( username) for showing me some chords ... thanks man!

 UPDATE (4/19/06): Fixed strumming paternings in just about all parts, made some changes
to chorus ... and added 'high' guitar part in bridge and outro

 UPDATE (4/21/06): MAJOR change - the freaking tuning ...its drop C, I would like to thank
FENDER785 for helping me relize this

 UPDATE (6/2/06):  Finally added 'high' guitar part people been asking me why i haven't
put up ... sounds right to me ... there are actually a couple more different ways u can
it but they all sound the same ..also i updated the chorus and added where pickslides would
be ... its pretty much perfect now =p

**UPDATE** (7/22/06): Changed and fixed some spacing all over the tab. Also made a slight change
to the verse ... the vibarto (bend) on the 3th fret I put, I think, is a pinch harmonic. 
I noticed in the music video and in a few live proformances, 
Barry doesn't move his hand from the 3rd fret to do a vibarto 
on a different fret.
So I'm guessing a pinch har. is probably right.
I guess it would seem fine as just a regular bend on the 3rd fret but tell me what you think
of my pinch harmonic idea (if you don't kno what a pinch harmonic is, don't bother)

TUNING: DROPPED C (C G C F A D)


This is my first tab by the way ...

Intro: (bass intro first)
|---------------------------------------------------------------|
|---------------------------------------------------------------|
|---------------------------------------------------------------|
|---------------------------------------------------------------|
|-00----------7-------------------------------------------------|
|-00------7-8---8-7---------------------------------------------|x4

|---------------------------------------------------------------|
|---------------------------------------------------------------|
|---------------------------------------------------------------|
|-00------------------------------------------------------------|
|-00----------7-------------------------------------------------|
|-00------7-8---8-7---------------------------------------------|x3

|---------------------------------------------------------------|
|---------------------------------------------------------------|
|---------------------------------------------------------------|
|-00------------------------------------------------------------|
|-00----------7-------------------------------------------------|
|-00------7-8---8-----------------------------------------------|x1


Verse:
|---------------------------------------------------------------|
|---------------------------------------------------------------|
|---------------------------------------------------------------|
|-33-333-333-333------------------------------------------------|
|-33-333-333-333----------00------7----------00------7----------|
|-33-333-333-333--3(P.H)v-00--7-8---8-7------00--7-8---8--------|x3


Pre-chorus:
|---------------------------------------------------------------|
|---------------------------------------------------------------|
|---------------------------------------------------------------|
|--33-333-333-333-3-555-555-5-8~--------------------------------|
|--33-333-333-333-3-555-555-5-8~--------------------------------|
|--33-333-333-333-3-555-555-5-8~--------------------------------|x1


Chorus:

Guitar 1:
|---------------------------------------------------------------|
|--------10's---------------------------------------------------|
|--------V------------------------------------------------------|
|-00-10101010-33-7-78--00-10101010-33-55-32---------------------|
|-00-10101010-33-7-78--00-10101010-33-55-32---------------------|
|-00-10101010-33-7-78--00-10101010-33-55-32---------------------|x1

|---------------------------------------------------------------|
|---------------------------------------------------------------|
|---------------------------------------------------------------|
|-00-10101010-33-7-78--00-10101010-33--5-3-2~-------------------|
|-00-10101010-33-7-78--00-10101010-33--5-3-2~-------------------|
|-00-10101010-33-7-78--00-10101010-33--5-3-2~-------------------|x1

Guitar 2:
|-------12-12-13-13-17~-17-18-------12-12-13-13-15~-13-12-------|
|-15-15-----------------------15-15-----------------------------|
|---------------------------------------------------------------|
|---------------------------------------------------------------|
|---------------------------------------------------------------|
|---------------------------------------------------------------|x2


Re-intro:
|---------------------------------------------------------------|
|---------------------------------------------------------------|
|---------------------------------------------------------------|
|---------------------------------------------------------------|
|-00----------7------00----------7------------------------------|
|-00------7-8---8-7--00------7-8---8----------------------------|x1


Verse 2:
|---------------------------------------------------------------|
|---------------------------------------------------------------|
|---------------------------------------------------------------|
|-33-333-333-333------------------------------------------------|
|-33-333-333-333----------00------7----------00------7----------|
|-33-333-333-333--3(P.H)v-00--7-8---8-7------00--7-8---8--------|x3


Pre-Chorus:
|---------------------------------------------------------------|
|---------------------------------------------------------------|
|---------------------------------------------------------------|
|--33-333-333-333-3-555-555-5-8~--------------------------------|
|--33-333-333-333-3-555-555-5-8~--------------------------------|
|--33-333-333-333-3-555-555-5-8~--------------------------------|x1


Chorus 2:

Guitar 1:
|---------------------------------------------------------------|
|--------10's---------------------------------------------------|
|--------V------------------------------------------------------|
|-00-10101010-33-7-78--00-10101010-33-55-32---------------------|
|-00-10101010-33-7-78--00-10101010-33-55-32---------------------|
|-00-10101010-33-7-78--00-10101010-33-55-32---------------------|x2

|---------------------------------------------------------------|
|---------------------------------------------------------------|
|---------------------------------------------------------------|
|-00-10101010-33-7-78--00-10101010-33--5-3-2-0~-----------------|
|-00-10101010-33-7-78--00-10101010-33--5-3-2-0~-----------------|
|-00-10101010-33-7-78--00-10101010-33--5-3-2-0~-----------------|x1

Guitar 2:
|-------12-12-13-13-17~-17-18-------12-12-13-13-15~-13-12-------|
|-15-15-----------------------15-15-----------------------------|
|---------------------------------------------------------------|
|---------------------------------------------------------------|
|---------------------------------------------------------------|
|---------------------------------------------------------------|x3


Bridge:
Quick pickslide THEN ...
|---------------------------------------------------------------|
|---------------------------------------------------------------|
|---------------------------------------------------------------|
|-88-888-555-5----------00-000-333-333-3------------------------|
|-88-888-555-5----7-----00-000-333-333-3------------------------|
|-88-888-555-5--8---8-7-00-000-333-333-3------------------------|x2

|---------------------------------------------------------------|
|---------------------------------------------------------------|
|-----------------9---------------------------------------------|
|-88-888-8--0-7-8---8-7--0~~------------------------------------|
|-88-888-8---------------0~~------------------------------------|
|-88-888-8---------------0~~------------------------------------|x1


Re-intro:
|---------------------------------------------------------------|
|---------------------------------------------------------------|
|---------------------------------------------------------------|
|---------------------------------------------------------------|
|-00----------7-------------------------------------------------|
|-00------7-8---8-7---------------------------------------------|x4


Chorus 3: (TWO riffs of no bass and treble first)

Guitar 1:
|---------------------------------------------------------------|
|--------10's---------------------------------------------------|
|--------V------------------------------------------------------|
|-00-10101010-33-7-78--00-10101010-33-55-32---------------------|
|-00-10101010-33-7-78--00-10101010-33-55-32---------------------|
|-00-10101010-33-7-78--00-10101010-33-55-32---------------------|x1

|---------------------------------------------------------------|
|---------------------------------------------------------------|
|---------------------------------------------------------------|
|-00-10101010-33-7-78--00-10101010-33--5-3-2-0~-----------------|
|-00-10101010-33-7-78--00-10101010-33--5-3-2-0~-----------------|
|-00-10101010-33-7-78--00-10101010-33--5-3-2-0~-----------------|x1

Guitar 2:
|-------12-12-13-13-17~-17-18-------12-12-13-13-15~-13-12-------|
|-15-15-----------------------15-15-----------------------------|
|---------------------------------------------------------------|
|---------------------------------------------------------------|
|---------------------------------------------------------------|
|---------------------------------------------------------------|x2


Outro:
|---------------------------------------------------------------|
|---------------------------------------------------------------|
|---------------------------------------------------------------|
|-00------------------------------------------------------------|
|-00----------7-------------------------------------------------|
|-00------7-8---8-7---------------------------------------------|x6

|---------------------------------------------------------------|
|---------------------------------------------------------------|
|-------9v------------------------------------------------------|
|-0-7-8----8-7--------------------------------------------------|
|---------------------------------------------------------------|
|---------------------------------------------------------------|x4

|---------------------------------------------------------------|
|---------------------------------------------------------------|
|---------------------------------------------------------------|
|-0~~~~~--------------------------------------------------------|
|-0~~~~~--------------------------------------------------------|
|-0~~~~~--------------------------------------------------------|x1

... THEN a long, kinda slow, pickslide to 1st fret

** Hope you like it ... please rate **
comments
print report bad tab
235 comments total. Showing first comments.
0 reply
RS-GUITARIST wrote on April 8 2006, 03:53 pm

Yay! Job well done.

--------------------
www.shellshockband.piczo.com

+8 reply
jaames wrote on April 10 2006, 01:27 am

The intro sounds dead on, however I think you have the verse, pre-chorus and chorus power chords a little off, it should be something like this...
Verse:
|---------------------------------------------------------|
|---------------------------------------------------------|
|---------------------------------------------------------|
|-3-3-333-333-333--------00---------------00--------------|
|-3-3-333-333-333--------00------7--------00------7-------|
|-3-3-333-333-333--5b----00--7-8---8-7----00--7-8---8-----|x3

Pre-chorus:
|---------------------------------------------------------|
|---------------------------------------------------------|
|---------------------------------------------------------|
|--3-3-333-333--555--555--8~------------------------------|
|--3-3-333-333--555--555--8-------------------------------|
|--3-3-333-333--555--555--8~------------------------------|x1

Chorus:
|---------------------------------------------------------|
|---------------------------------------------------------|
|---------------------------------------------------------|
|-000-101010-333-888-10----000-101010-333-8-7-5-----------|
|-000-101010-333-888-10----000-101010-333-8-7-5-----------|
|-000-101010-333-888-10----000-101010-333-8-7-5-x1--------|

+1 reply
rrthe3rd wrote on April 11 2006, 01:48 pm

Great job except you don't have the high guitar part during the chorus. Otherwise it is great.

I want to post or [tab]
guest
You may want to rate the tab now too:
select rating
Please do not post tabs as comments. Select "correction" instead!