Oops, an error
Loading. Please wait.

Animal I Have Become Tab

version 2
596,977 views 384 this week
235 commentsread comments
1 2 3 4 5
x 550
add to favorites
launch autoscroll
font size
0
reset
how to read this tab
guitar tuner
Autoscroll
slow
fast
+/-
esc
set tempo
stop
Help us to improve Ultimate-Guitar.com Take our survey!
×
Author
Tuning
C G C F A D
This is my first tab by the way ...

[Intro]

(bass intro first)
D|---------------------------------------------------------------|
A|---------------------------------------------------------------|
F|---------------------------------------------------------------|
C|---------------------------------------------------------------|
G|-00----------7-------------------------------------------------|
C|-00------7-8---8-7---------------------------------------------|x4

D|---------------------------------------------------------------|
A|---------------------------------------------------------------|
F|---------------------------------------------------------------|
C|-00------------------------------------------------------------|
G|-00----------7-------------------------------------------------|
C|-00------7-8---8-7---------------------------------------------|x3

D|---------------------------------------------------------------|
A|---------------------------------------------------------------|
F|---------------------------------------------------------------|
C|-00------------------------------------------------------------|
G|-00----------7-------------------------------------------------|
C|-00------7-8---8-----------------------------------------------|x1


[Verse]

D|---------------------------------------------------------------|
A|---------------------------------------------------------------|
F|---------------------------------------------------------------|
C|-33-333-333-333------------------------------------------------|
G|-33-333-333-333----------00------7----------00------7----------|
C|-33-333-333-333--3(P.H)v-00--7-8---8-7------00--7-8---8--------|x3


[Pre-chorus]

D|---------------------------------------------------------------|
A|---------------------------------------------------------------|
F|---------------------------------------------------------------|
C|--33-333-333-333-3-555-555-5-8~--------------------------------|
G|--33-333-333-333-3-555-555-5-8~--------------------------------|
C|--33-333-333-333-3-555-555-5-8~--------------------------------|x1


[Chorus]

(Guitar 1)
D|---------------------------------------------------------------|
A|--------10's---------------------------------------------------|
F|--------V------------------------------------------------------|
C|-00-10101010-33-7-78--00-10101010-33-55-32---------------------|
G|-00-10101010-33-7-78--00-10101010-33-55-32---------------------|
C|-00-10101010-33-7-78--00-10101010-33-55-32---------------------|x1

D|---------------------------------------------------------------|
A|---------------------------------------------------------------|
F|---------------------------------------------------------------|
C|-00-10101010-33-7-78--00-10101010-33--5-3-2~-------------------|
G|-00-10101010-33-7-78--00-10101010-33--5-3-2~-------------------|
C|-00-10101010-33-7-78--00-10101010-33--5-3-2~-------------------|x1

(Guitar 2)
D|-------12-12-13-13-17~-17-18-------12-12-13-13-15~-13-12-------|
A|-15-15-----------------------15-15-----------------------------|
F|---------------------------------------------------------------|
C|---------------------------------------------------------------|
G|---------------------------------------------------------------|
C|---------------------------------------------------------------|x2


[Re-intro]

D|---------------------------------------------------------------|
A|---------------------------------------------------------------|
F|---------------------------------------------------------------|
C|---------------------------------------------------------------|
G|-00----------7------00----------7------------------------------|
C|-00------7-8---8-7--00------7-8---8----------------------------|x1


[Verse 2]

D|---------------------------------------------------------------|
A|---------------------------------------------------------------|
F|---------------------------------------------------------------|
C|-3-3-3-3-3-3-3-3-3-3-3--------------------------------------------------|
G|-3-3-3-3-3-3-3-3-3-3-3----------0-0------7----------0-0------7----------|
C|-3-3-3-3-3-3-3-3-3-3-3--3(P.H)v-0-0--7-8---8-7------0-0--7-8---8--------|x3


[Pre-Chorus]

D|--------------------------------------------------------------------------|
A|--------------------------------------------------------------------------|
F|--------------------------------------------------------------------------|
C|--3-3-3-3-3-3-3-3-3-3-3-3-5-5-5-5-5-5-5-8~--------------------------------|
G|--3-3-3-3-3-3-3-3-3-3-3-3-5-5-5-5-5-5-5-8~--------------------------------|
C|--3-3-3-3-3-3-3-3-3-3-3-3-5-5-5-5-5-5-5-8~--------------------------------|x1


[Chorus 2]

(Guitar 1)
D|----------------------------------------------------------------------|
A|---------10's---------------------------------------------------------|
F|---------V------------------------------------------------------------|
C|-0-0-10101010-3-3-7-7-8--0-0-10101010-3-3-5-5-3-2---------------------|
G|-0-0-10101010-3-3-7-7-8--0-0-10101010-3-3-5-5-3-2---------------------|
C|-0-0-10101010-3-3-7-7-8--0-0-10101010-3-3-5-5-3-2---------------------|x2

D|--------------------------------------------------------------------|
A|--------------------------------------------------------------------|
F|--------------------------------------------------------------------|
C|-0-0-10101010-3-3-7-7-8--0-0-10101010-3-3--5-3-2-0~-----------------|
G|-0-0-10101010-3-3-7-7-8--0-0-10101010-3-3--5-3-2-0~-----------------|
C|-0-0-10101010-3-3-7-7-8--0-0-10101010-3-3--5-3-2-0~-----------------|x1

(Guitar 2)
D|-------12-12-13-13-17~-17-18-------12-12-13-13-15~-13-12-------|
A|-15-15-----------------------15-15-----------------------------|
F|---------------------------------------------------------------|
C|---------------------------------------------------------------|
G|---------------------------------------------------------------|
C|---------------------------------------------------------------|x3


[Bridge]

 Quick pickslide THEN ...
D|---------------------------------------------------------------------------|
A|---------------------------------------------------------------------------|
F|---------------------------------------------------------------------------|
C|-8-8-8-8-8-5-5-5-5----------0-0-0-0-0-3-3-3-3-3-3-3------------------------|
G|-8-8-8-8-8-5-5-5-5----7-----0-0-0-0-0-3-3-3-3-3-3-3------------------------|
C|-8-8-8-8-8-5-5-5-5--8---8-7-0-0-0-0-0-3-3-3-3-3-3-3------------------------|x2

D|------------------------------------------------------------------|
A|------------------------------------------------------------------|
F|--------------------9---------------------------------------------|
C|-8-8-8-8-8-8--0-7-8---8-7--0~~------------------------------------|
G|-8-8-8-8-8-8---------------0~~------------------------------------|
C|-8-8-8-8-8-8---------------0~~------------------------------------|x1


[Re-intro]

D|---------------------------------------------------------------|
A|---------------------------------------------------------------|
F|---------------------------------------------------------------|
C|---------------------------------------------------------------|
G|-00----------7-------------------------------------------------|
C|-00------7-8---8-7---------------------------------------------|x4


[Chorus 3]

(TWO riffs of no bass and treble first)

(Guitar 1)
D|----------------------------------------------------------------------|
A|---------10's---------------------------------------------------------|
F|---------V------------------------------------------------------------|
C|-0-0-10101010-3-3-7-7-8--0-0-10101010-3-3-5-5-3-2---------------------|
G|-0-0-10101010-3-3-7-7-8--0-0-10101010-3-3-5-5-3-2---------------------|
C|-0-0-10101010-3-3-7-7-8--0-0-10101010-3-3-5-5-3-2---------------------|x1

D|--------------------------------------------------------------------|
A|--------------------------------------------------------------------|
F|--------------------------------------------------------------------|
C|-0-0-10101010-3-3-7-7-8--0-0-10101010-3-3--5-3-2-0~-----------------|
G|-0-0-10101010-3-3-7-7-8--0-0-10101010-3-3--5-3-2-0~-----------------|
C|-0-0-10101010-3-3-7-7-8--0-0-10101010-3-3--5-3-2-0~-----------------|x1

(Guitar 2)
D|-------12-12-13-13-17~-17-18-------12-12-13-13-15~-13-12-------|
A|-15-15-----------------------15-15-----------------------------|
F|---------------------------------------------------------------|
C|---------------------------------------------------------------|
G|---------------------------------------------------------------|
C|---------------------------------------------------------------|x2


{Outro]

D|---------------------------------------------------------------|
A|---------------------------------------------------------------|
F|---------------------------------------------------------------|
C|-00------------------------------------------------------------|
G|-00----------7-------------------------------------------------|
C|-00------7-8---8-7---------------------------------------------|x6

D|---------------------------------------------------------------|
A|---------------------------------------------------------------|
F|-------9v------------------------------------------------------|
C|-0-7-8----8-7--------------------------------------------------|
G|---------------------------------------------------------------|
C|---------------------------------------------------------------|x4

D|---------------------------------------------------------------|
A|---------------------------------------------------------------|
F|---------------------------------------------------------------|
C|-0~~~~~--------------------------------------------------------|
G|-0~~~~~--------------------------------------------------------|
C|-0~~~~~--------------------------------------------------------|x1

... THEN a long, kinda slow, pickslide to 1st fret

** Hope you like it ... please rate **



************************************

| ~  Vibrato

************************************
Suggest correction
comments
print report bad tab
235 comments total. Showing first comments.
0 reply
RS-GUITARIST 114 Apr 08, 2006 03:53 PM

Yay! Job well done.

--------------------
www.shellshockband.piczo.com

+8 reply
jaames 1,351 Apr 10, 2006 01:27 AM

The intro sounds dead on, however I think you have the verse, pre-chorus and chorus power chords a little off, it should be something like this...
Verse:
|---------------------------------------------------------|
|---------------------------------------------------------|
|---------------------------------------------------------|
|-3-3-333-333-333--------00---------------00--------------|
|-3-3-333-333-333--------00------7--------00------7-------|
|-3-3-333-333-333--5b----00--7-8---8-7----00--7-8---8-----|x3

Pre-chorus:
|---------------------------------------------------------|
|---------------------------------------------------------|
|---------------------------------------------------------|
|--3-3-333-333--555--555--8~------------------------------|
|--3-3-333-333--555--555--8-------------------------------|
|--3-3-333-333--555--555--8~------------------------------|x1

Chorus:
|---------------------------------------------------------|
|---------------------------------------------------------|
|---------------------------------------------------------|
|-000-101010-333-888-10----000-101010-333-8-7-5-----------|
|-000-101010-333-888-10----000-101010-333-8-7-5-----------|
|-000-101010-333-888-10----000-101010-333-8-7-5-x1--------|

+1 reply
rrthe3rd 10 Apr 11, 2006 01:48 PM

Great job except you don't have the high guitar part during the chorus. Otherwise it is great.

guest
You may want to rate the tab now too:
select rating
Wanna post a correction for this tab? Suggest correction