Oops, an error
Loading. Please wait.

Animal I Have Become Bass Tab

version 3
21,163 views 30 this week
7 commentsread comments
1 2 3 4 5
accurate
x 8
add to favorites
launch autoscroll
font size
0
reset
guitar tuner
Tab Pro tools
  • play this tab
  • loop segment
  • change instrument
  • show fretboard
  • metronome
×
Best way to learn
"Animal I Have Become"
Autoscroll
slow
fast
+/-
esc
set tempo
stop
Difficulty
novice
This is Animal I Have Become by Three Days Grace. These tabs were made to be played on a 
It sounds pretty close to the actual song.

Intro        x12
G-----7----|
D---56-65--|
A-33-------|
E----------|
Verse        X3
G----------------------------------|
D--------------------7------7------|
A-66-666-666-6668--56-65--56-65----|
E----------------33-----33-----33--|
Pre-Chorus
G----------------------------|
D-----------------------6----|
A-66-666-666-666-688-888-----|
E----------------------------|
Chorus       X4
G---------------|
D---------------|
A-------6--8-10-|
E-8--6----------|
Verse        X3
G----------------------------------|
D--------------------7------7------|
A-66-666-666-6668--56-65--56-65----|
E----------------33-----33-----33--|
Pre-Chorus
G----------------------------|
D-----------------------6----|
A-66-666-666-666-688-888-----|
E----------------------------|
Second Chorus X6
G---------------                              G-------|
D---------------                              D-------|
A-------6--8-10-(after playing 6 times, play) A-3-----|
E-8--6----------                              E-------|
Bridge        X2
G--------------7-------------------|
D-66-666-633-56-65-----------------|
A-----------------33-333-366-666-6-|
E----------------------------------|
Bridge (Second Half)
G------------7---------|
D-66-666-6-56-65-------|
A---------5-----3------|
E----------------------|
Repeat Intro 7 times
(Guitar Solo, no bass)
Third Chorus   X4
G---------------|
D---------------|
A-------6--8-10-|
E-8--6----------|
Repeat Intro 6 times
Outro          X3
G----7---|
D--56-65-|
A-5------|
E--------|

G----7--------|
D--56-65------|
A-5-----3-----|
E-------------|

Animal I Have Become was played on a 5-String so you can't play it exactly like is 
on the album if you have a 4-String. But if you do have a 4-String, play these tabs, if 
right they sound nearly exact. Probably the closest you can get to this songon a 4-String.


Tabbed by Jay
Posted by Ronnie
comments
print report bad tab
7 comments total. Showing first comments.
0 reply
outoforder123 wrote on November 6 2006, 06:32 am

u could get closer if u just tune down to drop d or if u play it in a band jsut play it in drop d

0 reply
bassboss862 wrote on February 1 2007, 08:31 pm

you could play it
G:|--------7------|| G:|---------------||
D:|----5-6---6-5--|| o D:|---------------||
A:|-33------------|| r A:|-33-----5------||
E:|---------------|| E:|----3-4---4-3--||


0 reply
Misfit_princess wrote on May 26 2007, 05:41 am

Dude this tab is awesome =]
I'm to lazy to re-tune so thanks for putting this up!

I want to post or [tab]
guest
You may want to rate the tab now too:
select rating
Please do not post tabs as comments. Select "correction" instead!