Oops, an error
Loading. Please wait.

Animal I Have Become Tab

version 3
291,575 views 531 this week
50 commentsread comments
1 2 3 4 5
accurate
x 37
add to favorites
launch autoscroll
font size
0
reset
how to read this tab
guitar tuner
Autoscroll
slow
fast
+/-
esc
set tempo
stop
Help us to improve Ultimate-Guitar.com Take our survey!
×
Contributor
Difficulty
Tuning
FENDER785 265
novice
C G C F A D
Animal I Have Become-Three Days Grace

Tuning Drop C low to high (C-G-C-F-A-d)
Tabed by:FENDER785
Please Rate


[Intro]

00:08-00:23

d|--------------------|
A|--------------------|
F|--------------------|
C|--------------------|
G|-0-0----------7-----|
C|-0-0------7-8---8-7-|x4

d|------------------------|
A|------------------------|
F|------------------------|
C|-0-0--------------------| x3
G|-0-0----------7---------|
C|-0-0------7-8---8-7-----|

d|-------------------|
A|-------------------|
F|-------------------|
C|-0-0---------------|
G|-0-0-------7-------|
C|-0-0---7-8---8-----|


[Verse]

00:24-00:47

d|----------------------------------------------------------------------------|
A|----------------------------------------------------------------------------|
F|----------------------------------------------------------------------------|
C|-3-3--3-3-3--3-3-3--3-3-3--7------------------------------------------------|
G|-3-3--3-3-3--3-3-3--3-3-3--7------0-0---------7------------0-0--------7-----|
C|-3-3--3-3-3--3-3-3--3-3-3--7------0-0---7--8-----8--7------0-0--7--8-----8--|x3


[Pre-Chorus]

00:48-00:54

d|----------------------------------------------------------|
A|----------------------------------------------------------|
F|----------------------------------------------------------|
C|--3-3--3-3-3--3-3-3---3-3-3-----5-5-5-----5-5-5-----8-----|
G|--3-3--3-3-3--3-3-3---3-3-3-----5-5-5-----5-5-5-----8-----|
C|--3-3--3-3-3--3-3-3---3-3-3-----5-5-5-----5-5-5-----8-----|x1


[Chorus]

00:55-01:11

d|--------------------------------------------------|
A|--------------------------------------------------|
F|--------------------------------------------------|
C|-7-7-7-7---10-10-11-00--3-3-3-3--5---3---2-3------| x3
G|-7-7-7-7---10-10-10-10--3-3-3-3--5---3---2-3------|
C|-7-7-7-7---10-10-10-10--3-3-3-3--5---3---2-3------|

d|------------------------------------------------------|
A|------------------------------------------------------|
F|------------------------------------------------------|
C|7-7-7-7---10-10-10-10---3-3-3-3---5---3---2-----0-----|
G|7-7-7-7---10-10-10-10---3-3-3-3---5---3---2-----0-----|
C|7-7-7-7---10-10-10-10---3-3-3-3---5---3---2-----0-----|


[Post-Chorus]

01:12-01:14

d|----------------------------------------------|
A|----------------------------------------------|
F|----------------------------------------------|
C|----------------------------------------------|
G|-0-0------------7--------0-0------------7-----|
C|-0-0------7--8-----8--7--0-0------7--8----8---|x1


[Verse]

01:15-01:37

d|---------------------------------------------------------------------------------|
A|---------------------------------------------------------------------------------|
F|---------------------------------------------------------------------------------|
C|-3-3---3-3-3---3-3-3---3-3-3--7--------------------------------------------------|
G|-3-3---3-3-3---3-3-3---3-3-3--7-------0-0---------7------------0-0--------7------|
C|-3-3---3-3-3---3-3-3---3-3-3--7-------0-0---7--8-----8--7------0-0---7-8-----8---|x3


[Pre-Chorus]

01:38-01:45

d|------------------------------------------------------------|
A|------------------------------------------------------------|
F|------------------------------------------------------------|
C|--3-3---3-3-3---3-3-3---3-3-3-----5-5-5-----5-5-5-----8-----|
G|--3-3---3-3-3---3-3-3---3-3-3-----5-5-5-----5-5-5-----8-----|
C|--3-3---3-3-3---3-3-3---3-3-3-----5-5-5-----5-5-5-----8-----|x1


[Chorus 2]

01:46-02:09

d|--------------------------------------------------|
A|--------------------------------------------------|
F|--------------------------------------------------|
C|-7-7-7-7---10-10-11-00--3-3-3-3--5---3---2-3------| x5
G|-7-7-7-7---10-10-10-10--3-3-3-3--5---3---2-3------|
C|-7-7-7-7---10-10-10-10--3-3-3-3--5---3---2-3------|

d|------------------------------------------------------|
A|------------------------------------------------------|
F|------------------------------------------------------|
C|7-7-7-7---10-10-10-10---3-3-3-3---5---3---2-----0-----|
G|7-7-7-7---10-10-10-10---3-3-3-3---5---3---2-----0-----|
C|7-7-7-7---10-10-10-10---3-3-3-3---5---3---2-----0-----|


[Post-Chorus]

02:10-02:11

d|-------------------------|
A|-------------------------|
F|-------------------------|
C|-------------------------|
G|-0-0------------7--------|
C|-0-0------7--8-----8--7--|x1


[Bridge]

02:12-02:31

d|-----------------------------------------------------------------------------|
A|-----------------------------------------------------------------------------|
F|-----------------------------------------------------------------------------|
C|-8-8---8-8-8---8-5-5---5-5---------------------0-0---0-0-0---3-3-3---3-3-3---| x2
G|-8-8---8-8-8---8-5-5---5-5---------7-----------0-0---0-0-0---3-3-3---3-3-3---|
C|-8-8---8-8-8---8-5-5---5-5-----8-------8---7---0-0---0-0-0---3-3-3---3-3-3---|

d|--------------------------------------------------|
A|--------------------------------------------------|
F|--------------------------------------------------|
C|8-8---8-8-8---8---------------------------------0-|
G|8-8---8-8-8---8-------------------7-------------0-|
C|8-8---8-8-8---8-----0---7-----8-------8---7-----0-|


[Post-Bridge]

02:39-02:47

d|--------------------|
A|--------------------|
F|--------------------|
C|--------------------|
G|-00----------7------|
C|-00------7-8---8-7--|x4


[Chorus 3]

02:48-02:54

d|-------------------------------------------------|
A|-------------------------------------------------|
F|-------------------------------------------------|
C|-0-0-0-0--10-10-10-10---3-3-3-3---5---3---2-3----|
G|-0-0-0-0--10-10-10-10---3-3-3-3---5---3---2-3----|
C|-0-0-0-0--10-10-10-10---3-3-3-3---5---3---2-3----|

d|------------------------------------------------|
A|------------------------------------------------|
F|------------------------------------------------|
C|--0-0-0-0---10-10-10--3-3-3-3---5---3---2----0--|
G|--0-0-0-0---10-10-10--3-3-3-3---5---3---2----0--|
C|--0-0-0-0---10-10-10--3-3-3-3---5---3---2----0--|


[Chorus 4]

02:55-03:11

d|-------------------------------------------|
A|-------------------------------------------|
F|-------------------------------------------|
C|-7-7-7-7--10-10-10--3-3-3-3--5---3---2-3---| x3
G|-7-7-7-7--10-10-10--3-3-3-3--5---3---2-3---|
C|-7-7-7-7--10-10-10--3-3-3-3--5---3---2-3---|

d|--------------------------------------------------|
A|--------------------------------------------------|
F|--------------------------------------------------|
C|7-7-7-7---10-10-10-10--3-3-3-3---5---3---2-----0--|
G|7-7-7-7---10-10-10-10--3-3-3-3---5---3---2-----0--|
C|7-7-7-7---10-10-10-10--3-3-3-3---5---3---2-----0--|


[Outro]

03:12-03:50

d|--------------------------|
A|--------------------------|
F|--------------------------|
C|-0-0----------------------|
G|-0-0------------7---------|
C|-0-0------7--8-----8--7---|x6


d|---------------|   d|------|
A|---------------|   A|------|
F|---------------|   F|------|
C|---------------|   C|-0----|
G|-------7v------|   G|-0----|
C|-0-7-8----8-7--|x4 C|-0----|



************************************

| x  Dead note
| v  Vibrato

************************************
Suggest correction new What's this?
You can suggest a correction to this tab. Community and Mods will review your correction and vote to approve or reject it.
comments
print report bad tab
50 comments total. Showing first comments. show 1 bad comment
+3 reply
FENDER785 265 wrote on April 15 2006, 11:57 am

yes it fricken is

0 reply
FerriuS 185 wrote on April 16 2006, 06:22 am

It is

guest
You may want to rate the tab now too:
select rating
Please do not post tabs as comments. Select "correction" instead!