Oops, an error
Loading. Please wait.

Animal I Have Become Tab

version 3
285,278 views 480 this week
50 commentsread comments
1 2 3 4 5
accurate
x 37
add to favorites
launch autoscroll
font size
0
reset
how to read this tab
guitar tuner
Tab Pro tools
  • play this tab
  • loop segment
  • change instrument
  • show fretboard
  • metronome
×
Best way to learn
"Animal I Have Become"
Autoscroll
slow
fast
+/-
esc
set tempo
stop
Contributor
Difficulty
Tuning
novice
C G C F A D
                    Animal I Have Become-Three Days Grace

Tuning Drop C low to high (C-G-C-F-A-d)
Tabed by:FENDER785
Please Rate

Intro 00:08-00:23

d|-------------------|
A|-------------------|
F|-------------------|
C|-------------------|
G|-00----------7-----|
C|-00------7-8---8-7-|x4

d|-----------------------|
A|-----------------------|
F|-----------------------|
C|-00--------------------|
G|-00----------7---------|
C|-00------7-8---8-7-x3--|

------------------|
------------------|
------------------|
-00---------------|
-00-------7-------|
-00---7-8---8-x1--|

Verse 00:24-00:47

d|--------------------------------------------------------|
A|--------------------------------------------------------|
F|--------------------------------------------------------|
C|-33-333-333-333--7--------------------------------------|
G|-33-333-333-333--7------00------7----------00------7----|
C|-33-333-333-333--7------00--7-8---8-7------00--7-8---8--|x3

Pre-chorus 00:48-00:54

d|-------------------------------|
A|-------------------------------|
F|-------------------------------|
C|--33-333-333-333--555--555--8--|
G|--33-333-333-333--555--555--8--|
C|--33-333-333-333--555--555--8--|x1

Chorus 00:55-01:11

d|------------------------------------------------------------|
A|------------------------------------------------------------|
F|------------------------------------------------------------|
C|-7777-10101100-3333-5-3-23-----7777-10101010-3333-5-3-2--0--|
G|-7777-10101010-3333-5-3-23-----7777-10101010-3333-5-3-2--0--|
C|-7777-10101010-3333-5-3-23-x3--7777-10101010-3333-5-3-2--0--|

Post-Chorus 01:12-01:14

d|-------------------------------------|
A|-------------------------------------|
F|-------------------------------------|
C|-------------------------------------|
G|-00----------7------00----------7----|
C|-00------7-8---8-7--00------7-8---8--|x1


Verse 01:15-01:37

d|---------------------------------------------------------|
A|---------------------------------------------------------|
F|---------------------------------------------------------|
C|-33-333-333-333--7---------------------------------------|
G|-33-333-333-333--7-------00------7----------00------7----|
C|-33-333-333-333--7-------00--7-8---8-7------00--7-8---8--|x3


Pre-Chorus 01:38-01:45

d|-------------------------------|
A|-------------------------------|
F|-------------------------------|
C|--33-333-333-333--555--555--8--|
G|--33-333-333-333--555--555--8--|
C|--33-333-333-333--555--555--8--|x1

Chorus 2 01:46-02:09

d|----------------------------------------------------------|
A|----------------------------------------------------------|
F|----------------------------------------------------------|
C|-7777-101010-3333-5-3-23-----7777-10101010-3333-5-3-2--0--|
G|-7777-101010-3333-5-3-23-----7777-10101010-3333-5-3-2--0--|
C|-7777-101010-3333-5-3-23-x5--7777-10101010-3333-5-3-2--0--|

Post-Chorus 02:10-02:11

d|--------------------|
A|--------------------|
F|--------------------|
C|--------------------|
G|-00----------7------|
C|-00------7-8---8-7--|x1

Bridge 02:12-02:31

d|---------------------------------------------------------------------|
A|---------------------------------------------------------------------|
F|---------------------------------------------------------------------|
C|-88-888-855-55----------00-000-333-333-----88-888-8----------------0-|
G|-88-888-855-55----7-----00-000-333-333-----88-888-8---------7------0-|
C|-88-888-855-55--8---8-7-00-000-333-333-x2--88-888-8--0-7--8---8-7--0-|

post-bridge 02:39-02:47

d|--------------------|
A|--------------------|
F|--------------------|
C|--------------------|
G|-00----------7------|
C|-00------7-8---8-7--|x4

Chorus 3 02:48-02:54

d|----------------------------------------------------------|
A|----------------------------------------------------------|
F|----------------------------------------------------------|
C|-0000-10101010-3333-5-3-23-----0000-101010-3333-5-3-2--0--|
G|-0000-10101010-3333-5-3-23-----0000-101010-3333-5-3-2--0--|
C|-0000-10101010-3333-5-3-23-----0000-101010-3333-5-3-2--0--|

Chorus 4 02:55-03:11

d|----------------------------------------------------------|
A|----------------------------------------------------------|
F|----------------------------------------------------------|
C|-7777-101010-3333-5-3-23-----7777-10101010-3333-5-3-2--0--|
G|-7777-101010-3333-5-3-23-----7777-10101010-3333-5-3-2--0--|
C|-7777-101010-3333-5-3-23-x3--7777-10101010-3333-5-3-2--0--|

Outro 03:12-03:50

d|---------------------|
A|---------------------|
F|---------------------|
C|-00------------------|
G|-00----------7-------|
C|-00------7-8---8-7---|x6


d|---------------|   |------|
A|---------------|   |------|
F|---------------|   |------|
C|---------------|   |-0----|
G|-------7v------|   |-0----|
C|-0-7-8----8-7--|x4 |-0----|
comments
print report bad tab
50 comments total. Showing first comments. show 1 bad comment
+3 reply
FENDER785 wrote on April 15 2006, 11:57 am

yes it fricken is

0 reply
FerriuS wrote on April 16 2006, 06:22 am

It is

I want to post or [tab]
guest
You may want to rate the tab now too:
select rating
Please do not post tabs as comments. Select "correction" instead!