Oops, an error
Loading. Please wait.

Animal I Have Become Bass Tab

version 4
24,537 views 3 this week
5 commentsread comments
1 2 3 4 5
excellent!
x 9
add to favorites
launch autoscroll
font size
0
reset
guitar tuner
Autoscroll
slow
fast
+/-
esc
set tempo
stop
Help us to improve Ultimate-Guitar.com Take our survey!
×
Author
Difficulty
Tuning
novice
C G C F A D
ANIMAL I HAVE BECOME (Bassline)
As recorded by Three Days Grace
(From the 2006 Album ONE-X)

Transcribed by Whoabot
	

Words and Music by Three Days Grace
Arranged by Three Days Grace

Gtr I (C G C F) - 'Untitled'

   Intro
    Q=122
   4/4
    Gtr I
    E q  E E E E E   E q  E E E E E   E q  E E E E E   E q  E E E E E
||-----------------|----------------|----------------|------------------||
||o----------------|----------------|----------------|-----------------o||
||o----------7-----|----------7-----|----------7-----|----------7------o||
||--0-0--7h8---8-7-|-0-0--7h8---8-7-|-0-0--7h8---8-7-|-0-0--7h8---8-7---||


  E q  E E E E E   E q  E E E E E   E q  E E E E E   E q  E E E Q
|----------------|----------------|----------------|---------------||
|----------------|----------------|----------------|---------------||
|----------7-----|----------7-----|----------7-----|----------7----||
|-0-0--7h8---8-7-|-0-0--7h8---8-7-|-0-0--7h8---8-7-|-0-0--7h8---8--||


   Verse
    E q  E E q  E   E q  E E E Q    E q  E E E E E   E q  E E E Q    3x
||----------------|---------------|----------------|-----------------||
||o---------------|---------------|----------------|----------------o||
||o---------------|---------------|----------7-----|----------7-----o||
||--3-3--3-3-3--3-|-3-3--3-3-3-5--|-0-0--7h8---8-7-|-3-0--7h8---8----||


 Pre-Chorus
  E q  E E q  E   E q  E E q  E   E q  E E q  E   W
|---------------|---------------|---------------|------||
|---------------|---------------|---------------|------||
|---------------|---------------|---------------|------||
|-3-3--3-3-3--3-|-3-3--3-3-3--3-|-5-5--5-5-5--5-|-8----||


 Chorus
  Q  Q   Q   Q    Q  Q  Q  E E   Q  Q   Q   Q    Q  Q  E E E E
|---------------|--------------|---------------|---------------|
|---------------|--------------|---------------|---------------|
|---------------|--------------|---------------|---------------|
|-0--0--10--10--|-3--3--7--7h8-|-0--0--10--10--|-3--3--5-5-3-2-|


                                                       |-3-|
  Q  Q   Q   Q    Q  Q  Q  E E   Q  Q   Q   Q    Q  Q  Q Q Q
|---------------|--------------|---------------|--------------||
|---------------|--------------|---------------|--------------||
|---------------|--------------|---------------|--------------||
|-0--0--10--10--|-3--3--7--7h8-|-0--0--10--10--|-3--3--5-3-2--||


 Pre-Verse
  E q  E E E E E   E q  E E E Q
|----------------|---------------||
|----------------|---------------||
|----------7-----|----------7----||
|-0-0--7h8---8-7-|-0-0--7h8---8--||


   Verse
    E q  E E q  E   E q  E E E Q    E q  E E E E E   E q  E E E Q    3x
||----------------|---------------|----------------|-----------------||
||o---------------|---------------|----------------|----------------o||
||o---------------|---------------|----------7-----|----------7-----o||
||--3-3--3-3-3--3-|-3-3--3-3-3-5--|-0-0--7h8---8-7-|-3-0--7h8---8----||


 Pre-Chorus
  E q  E E q  E   E q  E E q  E   E q  E E q  E   W
|---------------|---------------|---------------|------||
|---------------|---------------|---------------|------||
|---------------|---------------|---------------|------||
|-3-3--3-3-3--3-|-3-3--3-3-3--3-|-5-5--5-5-5--5-|-8----||


   Chorus
    Q  Q   Q   Q    Q  Q  Q  E E   Q  Q   Q   Q    Q  Q  E E E E
||----------------|--------------|---------------|-----------------||
||o---------------|--------------|---------------|----------------o||
||o---------------|--------------|---------------|----------------o||
||--0--0--10--10--|-3--3--7--7h8-|-0--0--10--10--|-3--3--5-5-3-2---||


                                                       |-3-|
  Q  Q   Q   Q    Q  Q  Q  E E   Q  Q   Q   Q    Q  Q  Q Q Q
|---------------|--------------|---------------|--------------||
|---------------|--------------|---------------|--------------||
|---------------|--------------|---------------|--------------||
|-0--0--10--10--|-3--3--7--7h8-|-0--0--10--10--|-3--3--5-3-2--||


 nterlude
  W            E q  E E q  E   E q  E E E E E
|----------||----------------|----------------|
|----------||o---------------|----------------|
|----------||o---------------|----------7-----|
|-0--------||--8-8--8-8-8--8-|-5-5--5h8---8-7-|


  E q  E E q  E   E q  E E q  E
|---------------|----------------||
|---------------|---------------o||
|---------------|---------------o||
|-0-0--0-0-0--0-|-3-3--3-3-3--3--||


                  |-3-| |-3-|
  E q  E E q  E   Q Q Q Q Q Q   W          +W
|---------------|-------------|----------|--------|
|---------------|-------------|----------|--------|
|---------------|-------7-----|----------|--------|
|-8-8--8-8-8--8-|-0-7-8---8-7-|-0--------|-(0)----|


  E q  E E E E E   E q  E E E E E     E q  E E E E E   E q  E E E E E
|----------------|----------------||-----------------|-----------------||
|----------------|----------------||o----------------|----------------o||
|----------7-----|----------7-----||o----------7-----|----------7-----o||
|-0-0--7h8---8-7-|-0-0--7h8---8-7-||--0-0--7h8---8-7-|-0-0--7h8---8-7--||


 Pre-Chorus
  Wx4
|--------||
|--------||
|--------||
|--------||


   Out-Chorus
    Q  Q   Q   Q    Q  Q  Q  E E   Q  Q   Q   Q    Q  Q  E E E E
||----------------|--------------|---------------|-----------------||
||o---------------|--------------|---------------|----------------o||
||o---------------|--------------|---------------|----------------o||
||--0--0--10--10--|-3--3--7--7h8-|-0--0--10--10--|-3--3--5-5-3-2---||


   Outro
                                            |-3-| |-3-|
    E q  E E E E E   E q  E E E E E  3x     Q Q Q Q Q Q  3x
||-----------------|-----------------||-||---------------||
||o----------------|----------------o||-||o-------------o||
||o----------7-----|----------7-----o||-||o-------8-----o||
||--0-0--7h8---8-7-|-0-0--7h8---8-7--||-||--0-7-8---8-7--||


  H.=H          Q=117
  |-3-| |-3-|
  Q Q Q Q Q Q   W          +W             +W           +W      4x
|-------------|----------|------------||-------------|---------||
|-------------|----------|------------||o------------|--------o||
|-------8-----|----------|------------||o------------|--------o||
|-0-7-8---8-7-|-0--------|-(0)--------||--(0)--------|-(0)-----||



Duration Legend
---------------
W - whole; H - half; Q - quarter; E - 8th; S - 16th; T - 32nd; X - 64th; a - acciaccatura
+ - note tied to previous; . - note dotted; .. - note double dotted
Uncapitalized letters represent notes that are staccato (1/2 duration)
Irregular groupings are notated above the duration line
Duration letters will always appear directly above the note/fret number it represents the
duration for.  Duration letters with no fret number below them represent rests.  Multi-
bar rests are notated in the form Wxn, where n is the number of bars to rest for.  Low
melody durations appear below the staff

Tablature Legend
----------------
 h   - hammer-on
 p   - pull-off
 b   - bend
 pb  - pre-bend
 r   - bend release (if no number after the r, then release immediately)
 /\  - slide into or out of (from/to "nowhere")
 s   - legato slide
 S   - shift slide
 - natural harmonic
[n]  - artificial harmonic
n(n) - tapped harmonic
 ~   - vibrato
 tr  - trill
 T   - tap
 TP  - trem. picking
 PM  - palm muting
\n/  - tremolo bar dip; n = amount to dip
 \n  - tremolo bar down
 n/  - tremolo bar up
/n\  - tremolo bar inverted dip
 =   - hold bend; also acts as connecting device for hammers/pulls
 <> - volume swell (louder/softer)
 x   - on rhythm slash represents muted slash
 o   - on rhythm slash represents single note slash

Misc Legend
-----------
 |  - bar
||  - double bar
||o - repeat start
o|| - repeat end
*|  - double bar (ending)
 :  - bar (freetime)
 $  - Segno
 &  - Coda
Tempo markers -  = BPM(8/16=s8/s16), where s8 = swing 8ths, s16 = swing 16ths
Suggest correction
What's this?
You can suggest a correction to this tab. Community and Mods will review your correction and vote to approve or reject it.
comments
print report bad tab
5 comments total. Showing first comments.
-1 reply
suffering 21 wrote on January 26 2007, 02:17 pm

your chorus is wrong!!!1

0 reply
Whoabot 4,473 wrote on January 26 2007, 10:46 pm

Explain how.

0 reply
peacesells 29 wrote on April 1 2007, 10:05 pm

this is a really good tab, but u dont play 7h8 in the intro its just 7-8

guest
You may want to rate the tab now too:
select rating
Please do not post tabs as comments. Select "correction" instead!