Oops, an error
Loading. Please wait.

Animal I Have Become Tab

version 4
13,546 views 6 this week
13 commentsread comments
1 2 3 4 5
accurate
x 3
add to favorites
launch autoscroll
font size
0
reset
how to read this tab
guitar tuner
Tab Pro tools
  • play this tab
  • loop segment
  • change instrument
  • show fretboard
  • metronome
×
Best way to learn
"Animal I Have Become"
Autoscroll
slow
fast
+/-
esc
set tempo
stop
Contributor
Difficulty
Tuning
intermediate
C G C F A D
Tabbed By: RS-GUITARIST

Song: Animal I Have Become
Album: One-X (2006)Artist: Three Days Grace
Tuning: Drop C  (Sorry Massus, sicfreak91* is right)
Amp Setting: Gain: 7-10, Treble: 10, Middle: 2, Bass: 2, Reverb: 3-6
Channels: Overdrive

Guitar 1: Barry Stock
Guitar 2: Adam Gontier

Credit Is Listed: *

Update (July 24th, 2006): its x-x-7-7-0-0 for the intro. For the intro and riff you want 
swipe up and then down.
Update (July 28th, 2006)
Update (August..some date lol) i have finally conquered this tab, after a few hours with 
pen i changed a few things and now its perfect to some degree.

Intro:
0:00 – 0:08
|----------------------------|
|----------------------------|
|----------------------------|
|----------------------------|
|----------------------------|
|----------------------------|
0:08 – 0:15
|----------------------------|x4
|----------------------------|
|----------------------------|
|--0-------------------------|
|-00------7------------------|
|-00--7h8---8-7--------------|
0:15 – 0:21
|-1010-----------------------|x4
|-1010-----------------------|
|-7-7------------------------|
|-7-7------------------------|
|-0-0------7-----------------|
|-0-0--7h8---8-7-------------|
0:21 – 0:23
|-1010-----------------------|
|-1010-----------------------|
|-7-7------------------------|
|-7-7------------------------|
|-0-0------7-----------------|
|-0-0--7h8---8---------------|

Verse:
|----------------------------------------------------|x3
|----------------------------------------------------|
|----------------------------------------------------|
|--------------------------0-----------0-------------|
|-33--333-333--33----------00----7-----80-----7------|
|-33--333-333--33-/(15)\5b-00-7h8--8-7-00-7h8---8----|

|-----------------------------------------------|
|-----------------------------------------------|
|-----------------------------------------------|
|-33--333-333-333-3--555-555-5--8~~-------------|
|-33--333-333-333-3--555-555-5--8~~-------------|
|-33--333-333-333-3--555-555-5--8~~-------------|

Chorus
Guitar 2:
|-10-10-----------------------------------------|
|-10-10-----------------------------------------|
|-7--7------------------------------------------|
|-7--7--10-10--3--3--7---7h8--------------------|
|-0--0--10-10--3--3--7---7h8--------------------|
|-0--0--10-10--3--3--7---7h8--------------------|
Guitar 1:
|-------12-12--13-13-17--17h18------------------|
|-15-15-----------------------------------------|
|-----------------------------------------------|
|-----------------------------------------------|
|-----------------------------------------------|
|-----------------------------------------------|
Guitar 2:
|-10-10-----------------------------------------|
|-10-10-----------------------------------------|
|-7--7------------------------------------------|
|-7--7--10-10--3--3--5--5--3--2-----------------|
|-0--0--10-10--3--3--5--5--3--2-----------------|
|-0--0--10-10--3--3--5--5--3--2-----------------|
Guitar 1:
|-------12-12--13-13-15-15-13-12----------------|
|-15-15-----------------------------------------|
|-----------------------------------------------|
|-----------------------------------------------|
|-----------------------------------------------|
|-----------------------------------------------|
Guitar 2:
|-10-10-----------------------------------------|
|-10-10-----------------------------------------|
|-7--7------------------------------------------|
|-7--7--10-10--3--3--7--7h8---------------------|
|-0--0--10-10--3--3--7--7h8---------------------|
|-0--0--10-10--3--3--7--7h8---------------------|

Guitar 1:
|-------12-12--13-13-17-17h18-------------------|
|-15-15-----------------------------------------|
|-----------------------------------------------|
|-----------------------------------------------|
|-----------------------------------------------|
|-----------------------------------------------|
Guitar 2
|-10-10-----------------------------------------|
|-10-10-----------------------------------------|
|-7--7------------------------------------------|
|-7--7--10-10--3--3--5--5--3--2-----------------|
|-0--0--10-10--3--3--5--5--3--2-----------------|
|-0--0--10-10--3--3--5--5--3--2-----------------|
Guitar 1:
|-------12-12--13-13-15-15-13-12----------------|
|-15-15-----------------------------------------|
|-----------------------------------------------|
|-----------------------------------------------|
|-----------------------------------------------|
|-----------------------------------------------|

Verse:
|----------------------------------------------------|x3
|----------------------------------------------------|
|----------------------------------------------------|
|---------------------------0-----------0------------|
|-33--333-333--33-----------00----7-----80-----7-----|
|-33--333-333--33-/(15)\5b--00-7h8--8-7-00--7h8--8---|

|-----------------------------------------------|
|-----------------------------------------------|
|-----------------------------------------------|
|-33--333-333-333-3--555-555-5--8~~-------------|
|-33--333-333-333-3--555-555-5--8~~-------------| |-33--333-333-333-3--555-555-5--8~~-------------|


Chorus
Guitar 2:
|-10-10-----------------------------------------|
|-10-10-----------------------------------------|
|-7--7------------------------------------------|
|-7--7--10-10--3--3--7--7h8---------------------|
|-0--0--10-10--3--3--7--7h8---------------------|
|-0--0--10-10--3--3--7--7h8---------------------|
Guitar 1:
|-------12-12--13-13-17-17h18-------------------|
|-15-15-----------------------------------------|
|-----------------------------------------------|
|-----------------------------------------------|
|-----------------------------------------------|
|-----------------------------------------------|
Guitar 2:
|-10-10-----------------------------------------|
|-10-10-----------------------------------------|
|-7--7------------------------------------------|
|-7--7--10-10--3--3--5--5--3--2-----------------|
|-0--0--10-10--3--3--5--5--3--2-----------------|
|-0--0--10-10--3--3--5--5--3--2-----------------|
Guitar 1:
|-------12-12--13-13-15-15-13-12----------------|
|-15-15-----------------------------------------|
|-----------------------------------------------|
|-----------------------------------------------|
|-----------------------------------------------|
|-----------------------------------------------|
Guitar 2:
|-10-10-----------------------------------------|
|-10-10-----------------------------------------|
|-7--7------------------------------------------|
|-7--7--10-10--3--3--7--7h8---------------------|
|-0--0--10-10--3--3--7--7h8---------------------|
|-0--0--10-10--3--3--7--7h8---------------------|
Guitar 1:
|-------12-12--13-13-17-17h18-------------------|
|-15-15-----------------------------------------|
|-----------------------------------------------|
|-----------------------------------------------|
|-----------------------------------------------|
|-----------------------------------------------|
Guitar 2:
|-10-10-----------------------------------------|
|-10-10-----------------------------------------|
|-7--7------------------------------------------|
|-7--7--10-10--3--3--5--3--2--0-----------------|
|-0--0--10-10--3--3--5--3--2--0-----------------|
|-0--0--10-10--3--3--5--3--2--0-----------------|
Guitar 1:
|-------12-12--13-13-15-15-13-12----------------|
|-15-15-----------------------------------------|
|-----------------------------------------------|
|-----------------------------------------------|
|-----------------------------------------------|
|-----------------------------------------------|

Bridge
Guitar 2:
|-----------------------------------------------|
|-----------------------------------------------|
|--------------------------Fast-----------------|
|--\\\\\\\\\\\\\\\\\\\\-------------------------|
|---\\\\\\\\\\\\\\\\\\\\------------------------|
|----\\\\\\\\\\\\\\\\\\\\-----------------------|
Guitar 1:
|-----------------------------------------------|x2
|-----------------------------------------------|
|-1010-101010-777-7--------22-222--555-5--------|
|-8-8--8-8-8--555-5--------00-000--333-3--------|
|-8-8--8-8-8--555-5---7----00-000--333-3--------|
|-8-8--8-8-8--555-5-8--8p7-00-000--333-3--------|

Guitar 2:
|-----------------------------------------------|
|-----------------------------------------------|
|----------------------------7------------------|
|----------------------------7~-----------------|
|--------------------7-------0~-----------------|
|--------------0-7-8---8-7---0~-----------------|
Guitar 1:
|-----------------------------------------------|
|-----------------------------------------------|
|-101010101010-------9--------------------------|
|-8-8-8-8-8-8----7-8----8-7---------------------|
|-8-8-8-8-8-8--5--------------------------------|
|-8-8-8-8-8-8-----------------------------------|

Crazy effect or switch to neck pickup.
|----------------------------|x4
|----------------------------|
|----------------------------|
|--0-------------------------|
|-00------7------------------|
|-00--7h8---8-7--------------|

Use Both Pickups here, or max the reverb.
|-----------------------------------------------|
|-----------------------------------------------|
|-----------------------------------------------|
|-0~--10~--3~--(10)h12-12~--3~~-----------------|
|-0~--10~--3~--(10)h12-12~--3~~-----------------|
|-0~--10~--3~--(10)h12-12~--3~~-----------------|

Chorus:
Guitar 2:
|-10-10-----------------------------------------|
|-10-10-----------------------------------------|
|-7--7------------------------------------------|
|-7--7--10-10--3--3--7--7h8---------------------|
|-0--0--10-10--3--3--7--7h8---------------------|
|-0--0--10-10--3--3--7--7h8---------------------|
Guitar 1:
|-------12-12--13-13-17-17h18-------------------|
|-15-15-----------------------------------------|
|-----------------------------------------------|
|-----------------------------------------------|
|-----------------------------------------------|
|-----------------------------------------------|
Guitar 2:
|-10-10-----------------------------------------|
|-10-10-----------------------------------------|
|-7--7------------------------------------------|
|-7--7--10-10--3--3--5--5--3--2-----------------|
|-0--0--10-10--3--3--5--5--3--2-----------------|
|-0--0--10-10--3--3--5--5--3--2-----------------|
Guitar 1:
|-------12-12--13-13-15-15-13-12----------------|
|-15-15-----------------------------------------|
|-----------------------------------------------|
|-----------------------------------------------|
|-----------------------------------------------|
|-----------------------------------------------|
Guitar 2:
|-10-10-----------------------------------------|
|-10-10-----------------------------------------|
|-7--7------------------------------------------|
|-7--7--10-10--3--3--7--7h8---------------------|
|-0--0--10-10--3--3--7--7h8---------------------|
|-0--0--10-10--3--3--7--7h8---------------------|
Guitar 1:
|-------12-12--13-13-17-17h18-------------------|
|-15-15-----------------------------------------|
|-----------------------------------------------|
|-----------------------------------------------|
|-----------------------------------------------|
|-----------------------------------------------|
Guitar 2:
|-10-10-----------------------------------------|
|-10-10-----------------------------------------|
|-7--7------------------------------------------|
|-7--7--10-10--3--3--5--3--2--0-----------------|
|-0--0--10-10--3--3--5--3--2--0-----------------|
|-0--0--10-10--3--3--5--3--2--0-----------------|
Guitar 1:
|-------12-12--13-13-15-15-13-12----------------|
|-15-15-----------------------------------------|
|-----------------------------------------------|
|-----------------------------------------------|
|-----------------------------------------------|
|----------------------------------------------=|


Outro:
|-----------------------------|x6
|-1010------------------------|
|-7-7-------------------------|
|-7-7-------------------------|
|-0-0------7------------------|
|-0-0--7h8---8-7--------------|

Guitar 1:
|-----------13br-----------------------------------|x4
|-----10-11-----11-10~-----------------------------|
|---7----------------------------------------------|
|--------------------------------------------------|
|--------------------------------------------------|
|--------------------------------------------------|

Guitar 2:
|-----------------------------------------------|x4
|-----------------------------------------------|
|-----------------------------------------------|
|-----------------------------------------------|
|-----------7-----------------------------------|
|---0--7--8----8--7-----------------------------|

Exit:
Guitar 2:           
|----------10-----------------------------------|
|----------10-----------------------------------|
|----------7------------------------------------|
|----------7~~~~~~~~~~--------------------------|
|----------0~~~~~~~~~~--------------------------|
|----------0~~~~~~~~~~--------------------------|
Guitar 1:
|-----------------------------------------------|
|-----------------------------------------------|
|-----------------------------------------------|
|----------0~~~~~~~~~~--------------------------|
|----------0~~~~~~~~~~--------------------------|
|----------0~~~~~~~~~~--------------------------|

|-----------------------------------------------|
|-----------------------------------------------|
|-\\\\\\\\\\\\\\\\\\\\--------------------------|
|--\\\\\\\\\\\\\\\\\\\\-----\--\-----\\---------|
|---\\\\\\\\\\\\\\\\\\\\----\--\\-\\------------|
|-----------------------------------------------|

- 3:51
|-----------------------------------------------|
|-----------------------------------------------|
|-----------------------------------------------|
|---------------~~~~~~~~~~----------------------|
|---------------~~~~~~~~~~----------------------|
|---------------~~~~~~~~~~----------------------|

Pick slides aren’t accurate.
This is how they play it on the record.
For the invisible root notes just use your middle finger.
If I messed up on some guitar 1, 2 parts – comment please.

Have a good day; Canada is the best country to live in.
comments
We did not receive enough feedback on this tab! Please rate:
print report bad tab
1 2 3 4 5
13 comments total. Showing first comments.
0 reply
RS-GUITARIST wrote on July 9 2006, 10:39 am

for the last chorus you want to switch back to right pickup, or normal reverb.

0 reply
FerriuS wrote on July 9 2006, 10:47 am

It's Drop C

0 reply
sicfreak91 wrote on July 9 2006, 11:03 am

not only do u have the wrong tuning, but u have the strings up side down ... so for the intro ur saying to play it on the 1st and 2nd string ( high E and B in standard tuning) ... that goes for all the power chords too

I want to post or [tab]
guest
You may want to rate the tab now too:
select rating
Please do not post tabs as comments. Select "correction" instead!