Oops, an error
Loading. Please wait.

Animal I Have Become Bass Tab

version 5
11,089 views 3 this week
3 commentsread comments
1 2 3 4 5
x 8
add to favorites
launch autoscroll
font size
0
reset
guitar tuner
Autoscroll
slow
fast
+/-
esc
set tempo
stop
Help us to improve Ultimate-Guitar.com Take our survey!
×
Difficulty
Tuning
novice
D A D G B E
----------------------------------------------------------------------------
			     Animal I Have Become - Three Days Grace
----------------------------------------------------------------------------

Tabbed By : Bassfreak_2007
 This is 100% correct! At Least I think it is,Please Rate!

Tuning:Drop D

Intro Play 3 or 4 times

G|--------------------------------------------------------------------------|
D|--------------------------------------------------------------------------|
A|---------------5---------------------5---------------------5--------------|
D|-10-10-----5-6---6-5---10-10-----5-6---6-5---10-10-----5-6---6-5----------|

After... Play 3x

G|--------------------------------------------------------------------------|
D|--------------------------------------------------------------------------|
A|--------------------------------------------------------------------------|
D|-1-1--1-1-1--1-1-1--1-1-1-1-/5--------------------------------------------|

G|--------------------------------------------------------------------------|
D|--------------------------------------------------------------------------|
A|---------------5---------------------5------------------------------------|
D|-10-10-----5-6---6-5---10-10-----5-6---6----------------------------------|

Then The Pre Chorus

G|--------------------------------------------------------------------------|
D|--------------------------------------------------------------------------|
A|--------------------------------------------------------------------------|
D|-1-1--1-1-1--1-1-1--1-1-1-1-/3-3--3-3-3--3-3-3--3-3-3-3-/5----------------|

2x Chorus

G|--------------------------------------------------------------------------|
D|--------------------------------------------------------------------------|
A|--------------------------------------------------------------------------|
D|-10--10-10--8--8-8\1--1-1-/5-6-5---10---10-10--8--8-8\1--1-1-3--3-3-------|

Then...

G|--------------------------------------------------------------------------|
D|--------------------------------------------------------------------------|
A|--------------------------------------------------------------------------|
D|-10--10-10--8--8-8\1--1-3--1-3--------------------------------------------|

G|--------------------------------------------------------------------------|
D|--------------------------------------------------------------------------|
A|---------------5---------------------5------------------------------------|
D|-10-10-----5-6---6-5---10-10-----5-6---6----------------------------------|

3x on this part

G|--------------------------------------------------------------------------|
D|--------------------------------------------------------------------------|
A|--------------------------------------------------------------------------|
D|-1-1--1-1-1--1-1-1--1-1-1-1-/5--------------------------------------------|

G|--------------------------------------------------------------------------|
D|--------------------------------------------------------------------------|
A|---------------5---------------------5------------------------------------|
D|-10-10-----5-6---6-5---10-10-----5-6---6----------------------------------|

Pre Chorus Again

G|--------------------------------------------------------------------------|
D|--------------------------------------------------------------------------|
A|--------------------------------------------------------------------------|
D|-1-1--1-1-1--1-1-1--1-1-1-1-/3-3--3-3-3--3-3-3--3-3-3-3-/5----------------|

Then The Chorus
2 1/2x
G|--------------------------------------------------------------------------|
D|--------------------------------------------------------------------------|
A|--------------------------------------------------------------------------|
D|-10--10-10--8--8-8\1--1-1-/5-6-5---10---10-10--8--8-8\1--1-1-3--3-3-------|

Then
G|--------------------------------------------------------------------------|
D|--------------------------------------------------------------------------|
A|--------------------------------------------------------------------------|
D|-10--10-10--8--8-8\1--1-3--1-3--------------------------------------------|


Then After That

G|--------------------------------------------------------------------------|
D|--------------------------------------------------------------------------|
A|---------------5----------------------------------------------------------|
D|-10-10-----5-6---6--------------------------------------------------------|

After That play this part 4 times

G|--------------------------------------------------------------------------|
D|--------------------------------------------------------------------------|
A|--------------------------------------------------------------------------|
D|-1-1--1-1-1--1-1-1--1-1-1-1-/3-3--3-3-3--3-3-3--3-3-3-3-------------------|

then

G|--------------------------------------------------------------------------|
D|--------------------------------------------------------------------------|
A|-------5------------------------------------------------------------------|
D|-5-5-6---6-5-5~-----------------------------------------------------------|

wait for awhile

G|--------------------------------------------------------------------------|
D|--------------------------------------------------------------------------|
A|---------------5---------------------5---------------------5--------------|
D|-10-10-----5-6---6-5---10-10-----5-6---6-5---10-10-----5-6---6-5----------|


outro 2x

G|--------------------------------------------------------------------------|
D|--------------------------------------------------------------------------|
A|-------5------------------------------------------------------------------|
D|-5-5-6---6-5-5~-----------------------------------------------------------|


| /  slide up
| \  slide down
| h  hammer-on
| p  pull-off
| ~  Let Ring
| +  harmonic
| x  Mute note
===========================================================================
Suggest correction
comments
print report bad tab
3 comments total.
0 reply
HH_Emo_666 242 Jan 26, 2007 08:24 AM

idk y everybody keeps tabbing this song .. its like .. 100% tabbed already .. and this song is in drop c .. not d

0 reply
thisxbrokenxday 10 Jan 26, 2007 07:54 PM

i agree with HH_Emo_666....this has been tabbed too many times...the intro to this one isnt right and it is dropped in C

0 reply
decidingterror 10 Oct 30, 2013 12:54 PM

Sorry guys I'm pretty sure it's drop d just like all their other songs

guest
You may want to rate the tab now too:
select rating
Wanna post a correction for this tab? Suggest correction