Oops, an error
Loading. Please wait.

Animal I Have Become Tab

version 5
16,454 views 9 this week
15 commentsread comments
1 2 3 4 5
x 8
add to favorites
launch autoscroll
font size
0
reset
how to read this tab
guitar tuner
Autoscroll
slow
fast
+/-
esc
set tempo
stop
Help us to improve Ultimate-Guitar.com Take our survey!
×
Author
Difficulty
Tuning
novice
C G C F A D
ANIMAL I HAVE BECOME
As recorded by Three Days Grace
(From the 2006 Album ONE-X)

Transcribed by Whoabot
        

Words and Music by Three Days Grace
Arranged by Three Days Grace

Gtr I (C G C F A D) - 'Rhythm 1'
Gtr II (C G C F A D) - 'Rhythm 2'
Gtr III (C G C F A D) - 'Overdub Lead'
Gtr IV (C G C F A D) - 'Quiet Guitar'

 Intro
  Q=122
  N.C.
 4/4
  Gtr I
  Wx4
|--------|
|--------|
|--------|
|--------|
|--------|
|--------|


  D5   N.C.        D5   N.C.        D5   N.C.        D5   N.C.
  E q  E E E E E   E q  E E E E E   E q  E E E E E   E q  E E E E E
|----------------|----------------|----------------|----------------|
|----------------|----------------|----------------|----------------|
|----------------|----------------|----------------|----------------|
|----------------|----------------|----------------|----------------|
|-0-0------7-----|-0-0------7-----|-0-0------7-----|-0-0------7-----|
|-0-0--7h8---8-7-|-0-0--7h8---8-7-|-0-0--7h8---8-7-|-0-0--7h8---8-7-|


  D5     N.C.        D5     N.C.        D5     N.C.        D5     N.C.
  E q    E E E E E   E q    E E E E E   E q    E E E E E   E q    E E E Q
|------------------|------------------|------------------|-----------------||
|------------------|------------------|------------------|-----------------||
|------------------|------------------|------------------|-----------------||
|------------------|------------------|------------------|-----------------||
|-0-0--------7-----|-0-0--------7-----|-0-0--------7-----|-0-0--------7----||
|-0-0----7h8---8-7-|-0-0----7h8---8-7-|-0-0----7h8---8-7-|-0-0----7h8---8--||
|
| Gtr II
| E E H.             E E H.             E E H.             E E H.
|------------------|------------------|------------------|-----------------||
|------------------|------------------|------------------|-----------------||
|------------------|------------------|------------------|-----------------||
|-0-0--------------|-0-0--------------|-0-0--------------|-0-0-------------||
|-0-0--------------|-0-0--------------|-0-0--------------|-0-0-------------||
|-0-0--------------|-0-0--------------|-0-0--------------|-0-0-------------||


   Verse
    F5                         N.C. D5   N.C.        F D5 N.C.
                               ~
    E q  E E q  E   E q  E E E Q    E q  E E E E E   E q  E E E Q    3x
||----------------|---------------|----------------|-----------------||
||o---------------|---------------|----------------|----------------o||
||----------------|---------------|----------------|-----------------||
||----------------|---------------|----------------|-----------------||
||o-3-3--3-3-3--3-|-3-3--3-3-3----|-0-0------7-----|-0-0------7-----o||
||--3-3--3-3-3--3-|-3-3--3-3-3-5--|-0-0--7h8---8-7-|-3-0--7h8---8----||


 Pre-Chorus
  F5                              G5              Bb5
  E q  E E q  E   E q  E E q  E   E q  E E q  E   W
|---------------|---------------|---------------|------||
|---------------|---------------|---------------|------||
|---------------|---------------|---------------|------||
|-3-3--3-3-3--3-|-3-3--3-3-3--3-|-5-5--5-5-5--5-|-8----||
|-3-3--3-3-3--3-|-3-3--3-3-3--3-|-5-5--5-5-5--5-|-8----||
|-3-3--3-3-3--3-|-3-3--3-3-3--3-|-5-5--5-5-5--5-|-8----||


 Chorus
  D5      C5        F5      A5     Bb5  D5      C5        F5      G5    F5 E5
  Gtrs I, II
   Q   Q   Q   Q     Q   Q   Q   E  E    Q   Q   Q   Q     Q   Q   E  E  E  E
|-----------------|-------------------|-----------------|---------------------|
|-----------------|-------------------|-----------------|---------------------|
|-----------------|-------------------|-----------------|---------------------|
|--0---0--10--10--|--3---3---7---7h=8-|--0---0--10--10--|--3---3---5--5--3--2-|
|--0---0--10--10--|--3---3---7---7--8-|--0---0--10--10--|--3---3---5--5--3--2-|
|--0---0--10--10--|--3---3---7---7h=8-|--0---0--10--10--|--3---3---5--5--3--2-|
|
| Gtr III
|  Q   Q   Q   Q     Q   Q   Q   E  E    Q   Q   Q   Q     Q   Q   E  E  E  E
|---------12--12--|-13--13--17--17h18-|---------12--12--|-13--13--15-15-13-12-|
|-15--15----------|-------------------|-15--15----------|---------------------|
|-----------------|-------------------|-----------------|---------------------|
|-----------------|-------------------|-----------------|---------------------|
|-----------------|-------------------|-----------------|---------------------|
|-----------------|-------------------|-----------------|---------------------|


  D5      C5        F5      A5     Bb5  D5      C5        F5      G5 F5 E5
                                                                   |--3--|
   Q   Q   Q   Q     Q   Q   Q   E  E    Q   Q   Q   Q     Q   Q   Q  Q  Q
|-----------------|-------------------|-----------------|-------------------||
|-----------------|-------------------|-----------------|-------------------||
|-----------------|-------------------|-----------------|-------------------||
|--0---0--10--10--|--3---3---7---7h=8-|--0---0--10--10--|--3---3---5--3--2--||
|--0---0--10--10--|--3---3---7---7--8-|--0---0--10--10--|--3---3---5--3--2--||
|--0---0--10--10--|--3---3---7---7h=8-|--0---0--10--10--|--3---3---5--3--2--||
|
|                                                                  |--3--|
|  Q   Q   Q   Q     Q   Q   Q   E  E    Q   Q   Q   Q     Q   Q   Q  Q  Q
|---------12--12--|-13--13--17--17h18-|---------12--12--|-13--13--15-13-12--||
|-15--15----------|-------------------|-15--15----------|-------------------||
|-----------------|-------------------|-----------------|-------------------||
|-----------------|-------------------|-----------------|-------------------||
|-----------------|-------------------|-----------------|-------------------||
|-----------------|-------------------|-----------------|-------------------||


 Pre-Verse
  D5    N.C.        D5      N.C.
  Gtr I
   E q  E E E E E     E  q  E E E Q
|-----------------|------------------||
|-----------------|------------------||
|-----------------|------------------||
|-----------------|------------------||
|--0-0------7-----|---0--0------7----||
|--0-0--7h8---8-7-|---0--0--7h8---8--||
|
| Gtr II
|  E q  E E E E E     E  q  E H
|-----------------|------------------||
|-----------------|------------------||
|-----------------|------------------||
|-----------------|------------------||
|--0-0------7-----|---0--0-----------||
|--0-0--7h8---8-7-|---0--0-----------||
|
| Gtr III
|  W                 +W
|-----------------|------------------||
|-15--------------|-(15)-------------||
|-----------------|------------------||
|-----------------|------------------||
|-----------------|------------------||
|-----------------|------------------||


   Verse
    F5                         N.C. D5   N.C.        F D5 N.C.
                               ~
    E q  E E q  E   E q  E E E Q    E q  E E E E E   E q  E E E Q    3x
||----------------|---------------|----------------|-----------------||
||o---------------|---------------|----------------|----------------o||
||----------------|---------------|----------------|-----------------||
||----------------|---------------|----------------|-----------------||
||o-3-3--3-3-3--3-|-3-3--3-3-3----|-0-0------7-----|-0-0------7-----o||
||--3-3--3-3-3--3-|-3-3--3-3-3-5--|-0-0--7h8---8-7-|-3-0--7h8---8----||


 Pre-Chorus
  F5                              G5              Bb5
  E q  E E q  E   E q  E E q  E   E q  E E q  E   W
|---------------|---------------|---------------|------||
|---------------|---------------|---------------|------||
|---------------|---------------|---------------|------||
|-3-3--3-3-3--3-|-3-3--3-3-3--3-|-5-5--5-5-5--5-|-8----||
|-3-3--3-3-3--3-|-3-3--3-3-3--3-|-5-5--5-5-5--5-|-8----||
|-3-3--3-3-3--3-|-3-3--3-3-3--3-|-5-5--5-5-5--5-|-8----||


   Chorus
    D5      C5        F5      A5     Bb5
    Gtrs I, II
     Q   Q   Q   Q     Q   Q   Q   E  E
||------------------|-------------------|
||o-----------------|-------------------|
||------------------|-------------------|
||---0---0--10--10--|--3---3---7---7h=8-|
||o--0---0--10--10--|--3---3---7---7--8-|
||---0---0--10--10--|--3---3---7---7h=8-|
|
|   Gtr III
|    Q   Q   Q   Q     Q   Q   Q   E  E
||----------12--12--|-13--13--17--17h18-|
||o-15--15----------|-------------------|
||------------------|-------------------|
||------------------|-------------------|
||o-----------------|-------------------|
||------------------|-------------------|


  D5      C5        F5      G5   F5 E5
   Q   Q   Q   Q     Q   Q   E E  E  E
|-----------------|----------------------||
|-----------------|---------------------o||
|-----------------|----------------------||
|--0---0--10--10--|--3---3---5-5--3--2---||
|--0---0--10--10--|--3---3---5-5--3--2--o||
|--0---0--10--10--|--3---3---5-5--3--2---||
|
|  Q   Q   Q   Q     Q   Q   Q    E  E
|---------12--12--|-13--13--15---13-12---||
|-15--15----------|---------------------o||
|-----------------|----------------------||
|-----------------|----------------------||
|-----------------|---------------------o||
|-----------------|----------------------||


  D5      C5        F5      A5     Bb5  D5      C5        F5     G5 F5E5
                                                                  |-3-|
   Q   Q   Q   Q     Q   Q   Q   E  E    Q   Q   Q   Q     Q  Q   Q Q Q
|-----------------|-------------------|-----------------|----------------||
|-----------------|-------------------|-----------------|----------------||
|-----------------|-------------------|-----------------|----------------||
|--0---0--10--10--|--3---3---7---7h=8-|--0---0--10--10--|--3--3---5-3-2--||
|--0---0--10--10--|--3---3---7---7--8-|--0---0--10--10--|--3--3---5-3-2--||
|--0---0--10--10--|--3---3---7---7h=8-|--0---0--10--10--|--3--3---5-3-2--||
|
|  Q   Q   Q   Q     Q   Q   Q   E  E    Q   Q   Q   Q     H      H
|---------12--12--|-13--13--17--17h18-|---------12--12--|-13-----12------||
|-15--15----------|-------------------|-15--15----------|----------------||
|-----------------|-------------------|-----------------|----------------||
|-----------------|-------------------|-----------------|----------------||
|-----------------|-------------------|-----------------|----------------||
|-----------------|-------------------|-----------------|----------------||


 nterlude
  D5                 Bb5
   W                  E  q   E  E  q   E
|----------------||----------------------|
|----------------||o---------------------|
|----------------||--10-10--10-10-10--10-|
|--0-------------||---8--8---8--8--8---8-|
|--0-------------||o--8--8---8--8--8---8-|
|--0-------------||---8--8---8--8--8---8-|
|
|  H     +H           E  q   E  E  q   E
|----------------||----------------------|
|-15----(15)\----||o---------------------|
|----------------||--10-10--10-10-10--10-|
|----------------||---8--8---8--8--8---8-|
|----------------||o--8--8---8--8--8---8-|
|----------------||---8--8---8--8--8---8-|


  G5     N.C.      D5              F5
  E q  E E E E E   E q  E E q  E   E q  E E q  E
|----------------|---------------|----------------||
|----------------|---------------|---------------o||
|-7-7------------|-2-2--2-2-2--2-|-5-5--5-5-5--5--||
|-5-5------------|-0-0--0-0-0--0-|-3-3--3-3-3--3--||
|-5-5--5---7-----|-0-0--0-0-0--0-|-3-3--3-3-3--3-o||
|-5-5--5h8---8-7-|-0-0--0-0-0--0-|-3-3--3-3-3--3--||
|
| E q  E E E E E   E q  E E q  E   E q  E E q  E
|----------------|---------------|----------------||
|----------------|---------------|---------------o||
|-7-7------------|-2-2--2-2-2--2-|-5-5--5-5-5--5--||
|-5-5------------|-0-0--0-0-0--0-|-3-3--3-3-3--3--||
|-5-5--5---7-----|-0-0--0-0-0--0-|-3-3--3-3-3--3-o||
|-5-5--5h8---8-7-|-0-0--0-0-0--0-|-3-3--3-3-3--3--||


  Bb5                   N.C.          D5
  Gtr I
                                      >
                        |-3-| |-3-|
   E  q   E  E  q   E   Q Q Q Q Q Q   W          +W
|---------------------|-------------|----------|--------|
|---------------------|-------------|----------|--------|
|-10-10--10-10-10--10-|-------------|----------|--------|
|--8--8---8--8--8---8-|-------------|-0--------|-(0)----|
|--8--8---8--8--8---8-|-------7-----|-0--------|-(0)----|
|--8--8---8--8--8---8-|-0-7-8---8-7-|-0--------|-(0)----|
|
| Gtr II
|                                     >
|                       |-3-| |-3-|
|  E  q   E  E  q   E   Q Q Q Q Q Q   W          +W
|---------------------|-------------|----------|--------|
|---------------------|-------------|----------|--------|
|-10-10--10-10-10--10-|-------9-----|----------|--------|
|--8--8---8--8--8---8-|---7-8---8-7-|-0--------|-(0)----|
|--8--8---8--8--8---8-|-5-----------|-0--------|-(0)----|
|--8--8---8--8--8---8-|-------------|-0--------|-(0)----|


                                   N.C.        D5   N.C.
  +W           +W             E q  E E E E E   E q  E E E E E
|------------|------------||-----------------|-----------------||
|------------|------------||o----------------|----------------o||
|------------|------------||-----------------|-----------------||
|-(0)--------|-(0)--------||-----------------|-----------------||
|-(0)--------|-(0)--------||o-0-0------7-----|-0-0------7-----o||
|-(0)--------|-(0)--------||--0-0--7h8---8-7-|-0-0--7h8---8-7--||
|
| +W           +W             W                W
|------------|------------||-----------------|-----------------||
|------------|------------||o----------------|----------------o||
|------------|------------||-----------------|-----------------||
|-(0)--------|-(0)--------||-----------------|-----------------||
|-(0)--------|-(0)--------||o----------------|----------------o||
|-(0)--------|-(0)--------||-----------------|-----------------||


 Pre-Chorus
  D5    C5        F5    A5   Bb5 D5    C5        F5    G5  F5E5
  Gtr IV
  Q  Q   Q   Q    Q  Q  Q  E E   Q  Q   Q   Q    Q  Q  E E E E
|---------------|--------------|---------------|---------------||
|---------------|--------------|---------------|---------------||
|---------------|--------------|---------------|---------------||
|---------------|--------------|---------------|---------------||
|-0--0--10--10--|-3--3--7--7h8-|-0--0--10--10--|-3--3--5-5-3-2-||
|-0--0--10--10--|-3--3--7--7h8-|-0--0--10--10--|-3--3--5-5-3-2-||


   Out-Chorus
    D5      C5        F5      A5     Bb5
    Gtrs I, II
     Q   Q   Q   Q     Q   Q   Q   E  E
||------------------|-------------------|
||o-----------------|-------------------|
||------------------|-------------------|
||---0---0--10--10--|--3---3---7---7h=8-|
||o--0---0--10--10--|--3---3---7---7--8-|
||---0---0--10--10--|--3---3---7---7h=8-|
|
|   Gtr III
|    Q   Q   Q   Q     Q   Q   Q   E  E
||----------12--12--|-13--13--17--17h18-|
||o-15--15----------|-------------------|
||------------------|-------------------|
||------------------|-------------------|
||o-----------------|-------------------|
||------------------|-------------------|


  D5      C5        F5      G5    F5 E5
   Q   Q   Q   Q     Q   Q   E  E  E  E
|-----------------|-----------------------||
|-----------------|----------------------o||
|-----------------|-----------------------||
|--0---0--10--10--|--3---3---5--5--3--2---||
|--0---0--10--10--|--3---3---5--5--3--2--o||
|--0---0--10--10--|--3---3---5--5--3--2---||
|
|  Q   Q   Q   Q     Q   Q   E  E  E  E
|---------12--12--|-13--13--15-15-13-12---||
|-15--15----------|----------------------o||
|-----------------|-----------------------||
|-----------------|-----------------------||
|-----------------|----------------------o||
|-----------------|-----------------------||


   Outro
    D5     N.C.        D5     N.C.              D5N.C.
    Gtr I                                       Gtrs I, II
                                                         ~~
                                                |--3--|  |--3--|
    E q    E E E E E   E q    E E E E E  3x     Q  Q  Q  Q  Q  Q  3x
||-------------------|-------------------||-||--------------------||
||o------------------|------------------o||-||o------------------o||
||-------------------|-------------------||-||--------------------||
||-------------------|-------------------||-||--------------------||
||o-0-0--------7-----|-0-0--------7-----o||-||o-0--------8-------o||
||--0-0----7h8---8-7-|-0-0----7h8---8-7--||-||--0--7--8-----8--7--||
|
|   Gtr II                                      Gtr III
|                                                        ~~
|                                               |--3--|  |--3--|
|   E E H.             E E H.            3x     Q  Q  Q  Q  Q  Q  3x
||-------------------|-------------------||-||----------13--------||
||o------------------|------------------o||-||o---10-11----11-10-o||
||-------------------|-------------------||-||--7-----------------||
||--0-0--------------|-0-0---------------||-||--------------------||
||o-0-0--------------|-0-0--------------o||-||o------------------o||
||--0-0--------------|-0-0---------------||-||--------------------||


  H.=H               Q=117
  D5A5 Bb5N.CBb5A5   D5
                     Gtr I
  |--3--|  |--3--|
  Q  Q  Q  Q  Q  Q   W          +W             +W           +W      4x
|------------------|----------|------------||-------------|---------||
|------------------|-3--------|-(3)--------||o-(3)--------|-(3)----o||
|------------------|-2--------|-(2)--------||--(2)--------|-(2)-----||
|------------------|-0--------|-(0)--------||--(0)--------|-(0)-----||
|-0--7--8--8--8--7-|-0--------|-(0)--------||o-(0)--------|-(0)----o||
|-0--7--8-----8--7-|-0--------|-(0)--------||--(0)--------|-(0)-----||
|
|                    Gtr II
|          ~~
| |--3--|  |--3--|
| Q  Q  Q  Q  Q  Q   W          +W             +W           +W      4x
|---------13-------|----------|------------||-------------|---------||
|---10-11----11-10-|-3--------|-(3)--------||o-(3)--------|-(3)----o||
|-7----------------|-2--------|-(2)--------||--(2)--------|-(2)-----||
|------------------|-0--------|-(0)--------||--(0)--------|-(0)-----||
|------------------|-0--------|-(0)--------||o-(0)--------|-(0)----o||
|------------------|-0--------|-(0)--------||--(0)--------|-(0)-----||



Duration Legend
---------------
W - whole; H - half; Q - quarter; E - 8th; S - 16th; T - 32nd; X - 64th; a - acciaccatura
+ - note tied to previous; . - note dotted; .. - note double dotted
Uncapitalized letters represent notes that are staccato (1/2 duration)
Irregular groupings are notated above the duration line
Duration letters will always appear directly above the note/fret number it represents the
duration for.  Duration letters with no fret number below them represent rests.  Multi-
bar rests are notated in the form Wxn, where n is the number of bars to rest for.  Low
melody durations appear below the staff

Tablature Legend
----------------
 h   - hammer-on
 p   - pull-off
 b   - bend
 pb  - pre-bend
 r   - bend release (if no number after the r, then release immediately)
 /\  - slide into or out of (from/to "nowhere")
 s   - legato slide
 S   - shift slide
 - natural harmonic
[n]  - artificial harmonic
n(n) - tapped harmonic
 ~   - vibrato
 tr  - trill
 T   - tap
 TP  - trem. picking
 PM  - palm muting
\n/  - tremolo bar dip; n = amount to dip
 \n  - tremolo bar down
 n/  - tremolo bar up
/n\  - tremolo bar inverted dip
 =   - hold bend; also acts as connecting device for hammers/pulls
 <> - volume swell (louder/softer)
 x   - on rhythm slash represents muted slash
 o   - on rhythm slash represents single note slash

Misc Legend
-----------
 |  - bar
||  - double bar
||o - repeat start
o|| - repeat end
*|  - double bar (ending)
 :  - bar (freetime)
 $  - Segno
 &  - Coda
Tempo markers -  = BPM(8/16=s8/s16), where s8 = swing 8ths, s16 = swing 16ths
Suggest correction
comments
print report bad tab
15 comments total. Showing first comments.
0 reply
omg its sin 10 Mar 20, 2007 11:21 PM

Your intro is way off. Fix it.

0 reply
Whoabot 7,069 Mar 21, 2007 05:11 PM

Prove it.

0 reply
suffering 10 May 01, 2007 04:14 PM

its rite just there isnt a hammer-on barry plays the note

guest
You may want to rate the tab now too:
select rating
Wanna post a correction for this tab? Suggest correction