Oops, an error
Loading. Please wait.

Animal I Have Become Bass Tab

version 6
14,906 views 9 this week
6 commentsread comments
1 2 3 4 5
x 17
add to favorites
launch autoscroll
font size
0
reset
guitar tuner
Autoscroll
slow
fast
+/-
esc
set tempo
stop
Help us to improve Ultimate-Guitar.com Take our survey!
×
Author
Difficulty
Tuning
intermediate
B E A D F# B
----------------------------------------------------------------------------
	                 ANIMAL I HAVE BECOME - Three Days Grace
----------------------------------------------------------------------------

Tabbed By : Harley Fay
e-mail: wefay@charter.net

Tuning: Standard 5-String


Intro
G|----------------|
D|----------------|
A|---------5------| X11
E|-----3-4---4-3--|
B|-1-1------------|

G|-------------|
D|-------------|
A|---------5---|
E|-----3-4---4-|
B|-1-1---------|

Verse
G|----------------------------------------------------------------|
D|----------------------------------------------------------------|
A|---------------------------------------------5-------------5----| X3
E|-----------------------------------------3-4---4-3-----3-4---4--|
B|-4-4---4-4-4---4--4-4---4-4-4--4--6--1-1-----------1-1----------|

G|-----------------------------------------------------|
D|-----------------------------------------------------|
A|-----------------------------------------------------|
E|--------------------------------------------------4~-|
B|-4-4---4-4-4---4--4-4--4-4-4--4--6-6--6-6-6----6-----|

Chorus:
G|---------------------------------------------------------|
D|---------------------------------------------------------|
A|---------------------------------------------------------| X2
E|--------6--6-6--------3-3h4--------6--6-6----------------|
B|-1--1-1--------4--4-4-------1--1-1--------4--4-4--6-4-3--|

G|----------------------------|
D|----------------------------|
A|---------5-------------5----|
E|-----3-4---4-3-----3-4---4--|
B|-1-1-----------1-1----------|

Verse
G|----------------------------------------------------------------|
D|----------------------------------------------------------------|
A|---------------------------------------------5-------------5----| X3
E|-----------------------------------------3-4---4-3-----3-4---4--|
B|-4-4---4-4-4---4--4-4---4-4-4--4--6--1-1-----------1-1----------|

G|-----------------------------------------------------|
D|-----------------------------------------------------|
A|-----------------------------------------------------|
E|--------------------------------------------------4~-|
B|-4-4---4-4-4---4--4-4--4-4-4--4--6-6--6-6-6----6-----|

Chorus:
G|---------------------------------------------------------|
D|---------------------------------------------------------|
A|---------------------------------------------------------| x3
E|--------6--6-6--------3-3h4--------6--6-6----------------|
B|-1--1-1--------4--4-4-------1--1-1--------4--4-4--6-4-3--|

G|--------------------------------------------------------------------|
D|--------------------------------------------------------------------|
A|--------------------------------------------------------------------| X2
E|-4-4---4-4-4---4----------4---4-3-----------------------------------|
B|------------------6-6---6---3-----1-1---1-1-1---1--4-4---4-4-4---4--|

G|--------------------------------|
D|--------------------------------|
A|------------------------5-------|
E|-4-4---4-4-4---4--1-3-4---4-3---|
B|------------------------------1~|

G|----------------|
D|----------------|
A|---------5------| X8
E|-----3-4---4-3--|
B|-1-1------------|

SHORT REST

Chorus:
G|---------------------------------------------------------|
D|---------------------------------------------------------|
A|---------------------------------------------------------| x2
E|--------6--6-6--------3-3h4--------6--6-6----------------|
B|-1--1-1--------4--4-4-------1--1-1--------4--4-4--6-4-3--|

G|----------------|
D|----------------|
A|---------5------| X6
E|-----3-4---4-3--|
B|-1-1------------|

G|-------------------|
D|-------------------|
A|----------5--------| X4
E|----3--4-----4--3--|
B|-1-----------------|

G|----|
D|----|
A|----|
E|----|
B|-1~-|
Suggest correction
comments
print report bad tab
6 comments total. Showing first comments.
+2 reply
Craig-Bass1995 177 Jan 09, 2010 04:56 PM

Perfect. Usually played in Drop-C, but you made it perfect for fellow 5-Stringers like ourselves. Good job!

0 reply
Harley Fay 654 Jan 09, 2010 07:20 PM

thanks Craig Bass..............................

0 reply
BruceBass3901 10 Jun 30, 2010 05:29 PM

I was playing around with this earlier, and I think that the interlude should not be this:

G|--------------------------------------------------------------------|
D|--------------------------------------------------------------------|
A|--------------------------------------------------------------------| X2
E|-4-4---4-4-4---4----------4---4-3-----------------------------------|
B|------------------6-6---6---3-----1-1---1-1-1---1--4-4---4-4-4---4--|

But this:

G|--------------------------------------------------------------------|
D|--------------------------------------------------------------------|
A|----------------------------3---------------------------------------| X2
E|-4-4---4-4-4---4----------4---4-3-----------------------------------|
B|------------------6-6---6---------1-1---1-1-1---1--4-4---4-4-4---4--|

guest
You may want to rate the tab now too:
select rating
Wanna post a correction for this tab? Suggest correction