Oops, an error
Loading. Please wait.

Animal I Have Become Bass Tab

version 7
5,787 views 9 this week
6 commentsread comments
1 2 3 4 5
accurate
x 3
add to favorites
launch autoscroll
font size
0
reset
guitar tuner
Autoscroll
slow
fast
+/-
esc
set tempo
stop
Help us to improve Ultimate-Guitar.com Take our survey!
×
Author
Difficulty
intermediate
Tabbed for a 5-string just kuz it sounds better.  And no offense to the other guy the 
great, but I noticed some comments about a 5-string tab.

G|----------------|-----------------|-----------------|-----------------|
D|----------------|-----------------|-----------------|-----------------|
A|---------5------|----------5------|----------5------|----------5------|
E|-----3-4---4-3--|------3-4---4-3--|------3-4---4-3--|------3-4---4-3--|
B|-1-1------------|--1-1------------|--1-1------------|--1-1------------|

|----------------|-----------------|-----------------|-----------------|
|----------------|-----------------|-----------------|-----------------|
|---------5------|----------5------|----------5------|----------5------|
|-----3-4---4-3--|------3-4---4-3--|------3-4---4-3--|------3-4---4-3--|
|-1-1------------|--1-1------------|--1-1------------|--1-1------------|

|----------------|-----------------|-----------------|-----------------|
|----------------|-----------------|-----------------|-----------------|
|---------5------|----------5------|----------5------|----------5------|
|-----3-4---4-3--|------3-4---4-3--|------3-4---4-3--|------3-4---4~~--|
|-1-1------------|--1-1------------|--1-1------------|--1-1------------|

                                                                x3
| |----------------------------|---------------|---------------| |
|o|----------------------------|---------------|---------------|o|
| |----------------------------|---------5-----|---------5-----| |
|o|----------------------------|-----3-4---4-3-|-----3-4---4~~-|o|
| |-4-4--4-4-4--4-4-4--4-4-4-6~|-1-1-----------|-1-1-----------| |

|-----------------------------------------------|
|-----------------------------------------------|
|-----------------------------------------------|
|-----------------------------------------------|
|-4-4--4-4-4--4-4-4--4-4-4--4-6-6--6-6-6--6-9/--|

|---------|------------|---------|-----------|
|---------|------------|---------|-----------|
|---------|------------|---------|-----------|
|-----6---|-----3--3h4-|-----6---|-----------|
|-1-------|-4----------|-1-------|-4---6-6-4-|

|---------|------------|---------|-----------|
|---------|------------|---------|-----------|
|---------|------------|---------|-----------|
|-----6---|-----3--3h4-|-----6---|-----------|
|-1-------|-4----------|-1-------|-4---6-4-3-|

|---------------|---------------|
|---------------|---------------|
|---------5-----|---------5-----|
|-----3-4---4-3-|-----3-4---4~~-|
|-1-1-----------|-1-1-----------|

| |----------------------------|---------------|---------------| |
|o|----------------------------|---------------|---------------|o|
| |----------------------------|---------5-----|---------5-----| |
|o|----------------------------|-----3-4---4-3-|-----3-4---4~~-|o|
| |-4-4--4-4-4--4-4-4--4-4-4-6~|-1-1-----------|-1-1-----------| |

|-----------------------------------------------|
|-----------------------------------------------|
|-----------------------------------------------|
|-----------------------------------------------|
|-4-4--4-4-4--4-4-4--4-4-4--4-6-6--6-6-6--6-9/--|

|---------|------------|---------|-----------|
|---------|------------|---------|-----------|
|---------|------------|---------|-----------|
|-----6---|-----3--3h4-|-----6---|-----------|
|-1-------|-4----------|-1-------|-4---6-6-4-|

| |---------|------------|---------|-----------| |
|o|---------|------------|---------|-----------|o|
| |---------|------------|---------|-----------| |
|o|-----6---|-----3--3h4-|-----6---|-----------|o|
| |-1-------|-4----------|-1-------|-4---6-4-3-| |

|---------------|
|---------------|
|---------5-----|
|-----3-4---4-3-|
|-1-1-----------|

| |--------------------------------------------------------| |
|o|--------------------------------------------------------|o|
| |--------------------------------------------------------| |
|o|------------------------10------------------------------|o|
| |-9-9--9-9-9--9-6-6--6-9----9-6-1-1--1-1-1--1-4-4--4-4-4-| |

|----------------------------------------|
|----------------------------------------|
|---------------------------5------------|
|---------------1---3---4-------4---3----|
|-9-9--9-9-9--9--------------------------|

|----------------|-----------------|-----------------|-----------------|
|----------------|-----------------|-----------------|-----------------|
|---------5------|----------5------|----------5------|----------5------|
|-----3-4---4-3--|------3-4---4-3--|------3-4---4-3--|------3-4---4-3--|
|-1-1------------|--1-1------------|--1-1------------|--1-1------------|

|----------------|-----------------|-----------------|-----------------|
|----------------|-----------------|-----------------|-----------------|
|---------5------|----------5------|----------5------|----------5------|
|-----3-4---4-3--|------3-4---4-3--|------3-4---4-3--|------3-4---4-3--|
|-1-1------------|--1-1------------|--1-1------------|--1-1------------|

short pause

|---------|------------|---------|-----------|
|---------|------------|---------|-----------|
|---------|------------|---------|-----------|
|-----6---|-----3--3h4-|-----6---|-----------|
|-1-------|-4----------|-1-------|-4---6-6-4-|

|---------|------------|---------|-----------|
|---------|------------|---------|-----------|
|---------|------------|---------|-----------|
|-----6---|-----3--3h4-|-----6---|-----------|
|-1-------|-4----------|-1-------|-4---6-4-3-|

|----------------|-----------------|-----------------|-----------------|
|----------------|-----------------|-----------------|-----------------|
|---------5------|----------5------|----------5------|----------5------|
|-----3-4---4-3--|------3-4---4-3--|------3-4---4-3--|------3-4---4-3--|
|-1-1------------|--1-1------------|--1-1------------|--1-1------------|

                  |----------------|-----------------|
                  |----------------|-----------------|
                  |---------5------|----------5------|
                  |-----3-4---4-3--|------3-4---4-3--|
                  |-1-1------------|--1-1------------|

| |-------------------------|-------------------------| |
|o|-------------------------|-------------------------|o|
| |-------------5-----------|-------------5-----------| |
|o|-----3---4-------4---3---|-----3---4-------4---3---|o|
| |-1-----------------------|-1-----------------------| |

|-------|
|-------|
|-------|
|-------|
|-1~~~~~|

Thanks for viewing, please rate and comment.  And again, nothing against the other guy, 
wanted to make the 5-string tab (and fix a couple of errors I found)
Suggest correction
What's this?
You can suggest a correction to this tab. Community and Mods will review your correction and vote to approve or reject it.
comments
We did not receive enough feedback on this tab! Please rate:
print report bad tab
1 2 3 4 5
6 comments total. Showing first comments.
0 reply
hiv-i-hegnet 29 wrote on July 15 2009, 10:24 am

why did you make this for a 5 string? it isnt even in use :D but i guess some with 5 string basses might find this usefull :D

0 reply
Lemurs4mangos 2,244 wrote on July 15 2009, 12:19 pm

well, its played on a 5-string, the band does use a 5-string bass. ans the 5th string is in use, alot.

0 reply
100footk 64 wrote on December 12 2009, 10:32 am

this is played 5 string in concert but in the music video he plays 4 string i believe but it sounds good.

guest
You may want to rate the tab now too:
select rating
Please do not post tabs as comments. Select "correction" instead!