Oops, an error
Loading. Please wait.

Anonymous Tab

version 1
version 1

Whole song

Interactive

15,761 views 9 this week
2 commentsread comments
1 2 3 4 5
x 9
add to favorites
launch autoscroll
font size
0
reset
how to read this tab
guitar tuner
Autoscroll
slow
fast
+/-
esc
set tempo
stop
Help us to improve Ultimate-Guitar.com Take our survey!
×
Author
Difficulty
Tuning
novice
D A D G B E
Band: Three Days Grace
Song: Anonymous 
Tuning: Drop D
Tabbed By: shredforever

Worked hard on this tab and i think its pretty accurate.
The rhythm in the chorus can be played differently I just
picked a simple way to tab it out to help. 

Verse
e|-------------------------------------------------------------|
B|-------------------------------------------------------------|
G|---------------7-----------8-7---5---------2-3-----------3---| x2
D|-----5-----7-8---------5-------8---7-----------5-3-2-----3---|
A|---5---5-------------5---5---------------3-----------5-3-1---|
D|-5-------5---------5-------------------3---------------------| 

Chorus
e|--------------------------------------------------------|
B|-3---3---3----------------------------------------------|
G|-2---2---2---4-4--4-4-4---------------------------------|
D|-0---0---0---3-3--3-3-3---8---8---8---10-10--10-10-10---|
A|-0---0---0---3-3--3-3-3---8---8---8---10-10--10-10-10---|
D|-0---0---0---3-3--3-3-3---8---8---8---10-10--10-10-10---|

e|-----------------------------------------------------|
B|-3---3---3-------------------------------------------|
G|-2---2---2---4-4--4-4-4------------------------------|
D|-0---0---0---3-3--3-3-3---5---5---5---5-5-8-8-7-10---|
A|-0---0---0---3-3--3-3-3---5---5---5---5-5-8-8-7-10---|
D|-0---0---0---3-3--3-3-3---5---5---5---5-5-8-8-7-10---|

e|--------------------------------------------------------|
B|-3---3---3----------------------------------------------|
G|-2---2---2---4-4--4-4-4---------------------------------|
D|-0---0---0---3-3--3-3-3---8---8---8---10-10--10-10-10---|
A|-0---0---0---3-3--3-3-3---8---8---8---10-10--10-10-10---|
D|-0---0---0---3-3--3-3-3---8---8---8---10-10--10-10-10---|

e|-----------------------------|
B|-----------------------3-----|
G|-----------------------2-----|
D|-8---8---7-8-7-5--8-10-0-----|
A|-8---8---7-8-7-5--8-10-0-----|
D|-8---8---7-8-7-5--8-10-0-----|

Verse

Chorus 2
e|--------------------------------------------------------|
B|-3---3---3----------------------------------------------|
G|-2---2---2---4-4--4-4-4---------------------------------|
D|-0---0---0---3-3--3-3-3---8---8---8---10-10--10-10-10---|
A|-0---0---0---3-3--3-3-3---8---8---8---10-10--10-10-10---|
D|-0---0---0---3-3--3-3-3---8---8---8---10-10--10-10-10---|

e|-----------------------------------------------------|
B|-3---3---3-------------------------------------------|
G|-2---2---2---4-4--4-4-4------------------------------|
D|-0---0---0---3-3--3-3-3---5---5---5---5-5-8-8-7-10---|
A|-0---0---0---3-3--3-3-3---5---5---5---5-5-8-8-7-10---|
D|-0---0---0---3-3--3-3-3---5---5---5---5-5-8-8-7-10---|

e|--------------------------------------------------------|
B|-3---3---3----------------------------------------------|
G|-2---2---2---4-4--4-4-4---------------------------------|
D|-0---0---0---3-3--3-3-3---8---8---8---10-10--10-10-10---|
A|-0---0---0---3-3--3-3-3---8---8---8---10-10--10-10-10---|
D|-0---0---0---3-3--3-3-3---8---8---8---10-10--10-10-10---|

e|-------------------------|
B|-------------------------|
G|-------------------------|
D|-8---8---7-8-7-----------|
A|-8---8---------10-8------|
D|-8---8--------------10---|

Bridge
e|-----------------------------------------------------------------|
B|-----------------------------------------------------------------|
G|--------------------12-10-10-----------------------12-10-10------| x4
D|-12---12---10-12-12----------10---8---8---10-12-12----------10---|
A|-12---12---10-12-12-10--8--8-10---8---8---10-12-12-10--8--8-10---|
D|-12---12---10-12-12----------10---8---8---10-12-12----------10---|

e|-----------------------------|
B|-----------------------------|
G|-7---5-------3---7---5-------|
D|-7---5---5---3---7---5---5---|
A|-5---3---5---1---5---3---5---|
D|---------5---------------5---|
(I am not sure if these are the chords they play here but
i think they still work.)

Final Chorus
e|--------------------------------------------------------|
B|-3---3---3----------------------------------------------|
G|-2---2---2---4-4--4-4-4---------------------------------|
D|-0---0---0---3-3--3-3-3---8---8---8---10-10--10-10-10---|
A|-0---0---0---3-3--3-3-3---8---8---8---10-10--10-10-10---|
D|-0---0---0---3-3--3-3-3---8---8---8---10-10--10-10-10---|

e|-----------------------------------------------------|
B|-3---3---3-------------------------------------------|
G|-2---2---2---4-4--4-4-4------------------------------|
D|-0---0---0---3-3--3-3-3---5---5---5---5-5-8-8-7-10---|
A|-0---0---0---3-3--3-3-3---5---5---5---5-5-8-8-7-10---|
D|-0---0---0---3-3--3-3-3---5---5---5---5-5-8-8-7-10---|

e|--------------------------------------------------------|
B|-3---3---3----------------------------------------------|
G|-2---2---2---4-4--4-4-4---------------------------------|
D|-0---0---0---3-3--3-3-3---8---8---8---10-10--10-10-10---|
A|-0---0---0---3-3--3-3-3---8---8---8---10-10--10-10-10---|
D|-0---0---0---3-3--3-3-3---8---8---8---10-10--10-10-10---|

e|-----------------------------------------------------------------------------------------|
B|-----------------------------------------------------------------------------------3-----|
G|-----------------------------------------------------------------------------------2-----|
D|-8---8---8---10-10--10-10-10---8---8---8---10-10--10-10-10---8---8---7-8-7-5--8-10-0-----|
A|-8---8---8---10-10--10-10-10---8---8---8---10-10--10-10-10---8---8---7-8-7-5--8-10-0-----|
D|-8---8---8---10-10--10-10-10---8---8---8---10-10--10-10-10---8---8---7-8-7-5--8-10-0-----|
Suggest correction
comments
print report bad tab
2 comments total.
0 reply
drpdrp97 124 Mar 03, 2013 01:11 PM

This is really good, but that clean part in the bridge, instead of

e|-----------------------------|
B|-----------------------------|
G|-7---5-------3---7---5-------|
D|-7---5---5---3---7---5---5---|
A|-5---3---5---1---5---3---5---|
D|---------5---------------5---|

I think it's

e|---------------------------------|
B|---------------------------------|
G|-7---10---12---15---7---10-------|
D|-7---10---12---15---7---10---5---|
A|-5---8----10---13---5---8----5---|
D|-----------------------------5---|

0 reply
lg187 2,088 Sep 14, 2013 12:01 AM

the 4th fret on the g string here doesnt sound right, should be 5

G|--5--
D|--3
A|--3
D|--3

And at the very end when the song fades out, you hear him hit a high D so probably tap the 19th fret on the g string

guest
You may want to rate the tab now too:
select rating
Wanna post a correction for this tab? Suggest correction