Oops, an error
Loading. Please wait.

Are You Ready Bass Tab

version 1
version 1

Whole song

Interactive

1,094 views 1 this week
1 commentread comment
1 2 3 4 5
2 more votes to show rating
add to favorites
launch autoscroll
font size
0
reset
guitar tuner
Autoscroll
slow
fast
+/-
esc
set tempo
stop
Help us to improve Ultimate-Guitar.com Take our survey!
×
Author
Tuning
D A D G B E
-------------------------------------
  ARE YOU READY - Three Days Grace
-------------------------------------


Intro[0:10] x2

G|--------------------------------|
D|--------------------------------|
A|2-------4---5-------------------|
D|----------------5-------2-------|


Verse[0:19] x4

G|--------------------------------|
D|--------------------------------|
A|2-22-2-24---5-------------------|
D|----------------5-------2-------|


Pre-chorus[0:37]

G|--------------------------------|
D|--------------------------------|
A|00000000--------0000000---------|
D|--------22222222-------24444-444|
                       [pm----]


Chorus[0:46]

G|--------------------------------|
D|----4-------4-------------------|
A|--------------------4-----------|
D|0-0-----0-0-----4-4-----5-5-7---| x3

G|--------------------------------|
D|----4-------4-------------------|
A|--------------------4-----------|
D|0-0-----0-0-----4-4-----5---7---|


Verse[1:05] x4


Pre-chorus[1:23]


Chorus[1:32]


Interlude[1:50] x2
 
G|--------------------------------|
D|--------------------------------|
A|222222223333333300000000--------|
D|------------------------44445555|
                       [pm--------]


Pre-Chorus[2:09]

G|--------------------------------|
D|--------------------------------|
A|--------------------4-----------|
D|0-0-----0-0-----4-4-----5---7---|


Chorus[2:13]

G|--------------------------------|
D|----4-------4-------------------|
A|--------------------4-----------|
D|0-0-----0-0-----4-4-----5-5-7---| x3

G|--------------------------------|
D|----4-------4-------------------|
A|--------------------4-----------|
D|0-0-----0-0-----4-4-----5---7---|

G|--------------------------------|
D|--------------------------------|
A|--------------------------------|
D|0-------------------------------|
Suggest correction
Give kudos to tab author, rate the tab!
1 2 3 4 5
comments
print report bad tab
1 comment total.
0 reply
Devindude123123 52 Jun 12, 2011 08:14 PM

three days grace's bassist uses a 5 string for this whole album...

guest
You may want to rate the tab now too:
select rating
Wanna post a correction for this tab? Suggest correction