Oops, an error
Loading. Please wait.

Are You Ready Tab

version 2
version 2

Whole song

Interactive

2,114 views 3 this week
no commentswrite comment
1 2 3 4 5
please rate
add to favorites
launch autoscroll
font size
0
reset
how to read this tab
guitar tuner
Autoscroll
slow
fast
+/-
esc
set tempo
stop
Help us to improve Ultimate-Guitar.com Take our survey!
×
Are you Ready by Three days Grace

My 3rd tab im pretty sure this is 98% correct
my teacher helped me alot with this 1
tuning drop D

~ = bend
* = muted note
x = palm mute

Intro

e-------------------|
B-------------------|
G-3----5--6--6----3-|
D-3----*--*--4----1-|
A-1----3--4--4----1-|
D------------4----1-| x2

Verse
e------------------------|
B------------------------|
G-3------3------3------3-|
D-3------3------3------3-|
A-1------1------1------1-|
D------------------------|

Part before chorus

e----------------------------|
B----------------------------|
G-2----------2---------------|
D-2----3-----2-----4444-5555-|
A-0----3-----0-----4444-5555-|
D------3-----------4444-5555-|
                   xxxx xxxx

Chorus
(when u bend the string bend it down and come back up quickly)

e------------------------------|
B------------------------------|
G------------------------------|
D-00-~4~-00-~4~-99-~12~-55-~7~-|
A-00-----00-----99------55-----|
D-00-----00-----99------55-----| x4

Verse
e------------------------|
B------------------------|
G-3------3------3------3-|
D-3------3------3------3-|
A-1------1------1------1-|
D------------------------|


Part before chorus

e----------------------------|
B----------------------------|
G-2----------2---------------|
D-2----3-----2-----4444-5555-|
A-0----3-----0-----4444-5555-|
D------3-----------4444-5555-|
                   xxxx xxxx

Chorus

e------------------------------|
B------------------------------|
G------------------------------|
D-00-~4~-00-~4~-99-~12~-55-~7~-|
A-00-----00-----99------55-----|
D-00-----00-----99------55-----| x4


Bridge

e-----------------------    e--------|
B-----------------------    B--------|
G-3---6---6-------------    G--------|
D-3---*---4---4444-5555-    D-00*00*-|
A-1---4---4---4444-5555-    A-00*00*-|
D---------4---4444-5555- x2 D-00*00*-|
              XXXX XXXX

e------------------|
B------------------|
G------------------|
D-999912-5557-0040-|
A-99999--5555-0000-|
D-99999--5555-0000-|

Chorus

e------------------------------    e---|
B------------------------------    B---|
G------------------------------    G---|
D-00-~4~-00-~4~-99-~12~-55-~7~-    D-0-|
A-00-----00-----99------55-----    A-0-|
D-00-----00-----99------55----- x4 D-0-|

enjoy!
Suggest correction
Give kudos to tab author, rate the tab!
1 2 3 4 5
comments
print report bad tab
guest
You may want to rate the tab now too:
select rating
Please do not post tabs as comments. Select "correction" instead!