Oops, an error
Loading. Please wait.

Are You Ready Tab

version 3
version 3

Whole song

Interactive

2,798 views 6 this week
no commentswrite comment
1 2 3 4 5
please rate
add to favorites
launch autoscroll
font size
0
reset
how to read this tab
guitar tuner
Autoscroll
slow
fast
+/-
esc
set tempo
stop
Help us to improve Ultimate-Guitar.com Take our survey!
×
Contributor
TDG Tabs 653
Hey guys, 

Here's another tab. I've seen really wrong tabs so for "Are you Ready", so I 
decided to make one myself. 
I know that this tab is pretty close. This is  also how i play "Are you Ready", enjoy.

[intro]    x2
|----|------------------------|
|----|------------------------|
|----|----4--6--7-------------|
|-0~-|----x--x--x--5--2~------|
|-0~-|----2--4--5--5--2~------|
|-0~-|-------------5--2~------|
  ^whammy bar used

[verse]
|-----------------------|
|-----------------------|
|-4~---4~---4~---4~-----|
|-x~---x~---x~---x~-----|
|-2~---2~---2~---2~-----|
|-----------------------|

[pre-chorus] 
|------------------------------------------|
|-10~---5~----10~---7777---7-7-7-7---------|
|-9~----4~----9~----6666---6-6-6-6---------|
|-7~----2~----7~----4444---4-4-4-4---------|
|-7~----2~----7~----4444---4-4-4-4---------|
|-7~----2~----7~----4444---4-4-4-4---------|
                 pm|----|

[chorus] x4
|-------------------------------------|
|------7---------7-------7------------|
|------x---------x-------6------14----|
|-0-0--4--0-0-0--4--0--4-4--5/--x-----|
|-0-0-----0-0-0-----0--4-4--5/--12----|
|-0-0-----0-0-0-----0--4-4--5/--------|

repeat verse
repeat pre-chorus
repeat chorus

[interlude/bridge]x2
|------------------------------------|
|------------------------------------|
|--4~--5~--2~------------------------| 
|--x~--x~--2~--4-4-4-4--5-5-5-5------|
|--2~--3~--0~--4-4-4-4--5-5-5-5------|
|--------------4-4-4-4--5-5-5-5------|
            pm|-----------------|

[break]
|------------------------------|
|-----------------7------------|
|-2-----2---------6------14----|
|-0-0---0-0-----4-4--5/--x-----|
|-0-0---0-0-----4-4--5/--12----|
|-0-0---0-0-----4-4--5/--------|
 |----------|
  dont let notes ring

repeat chorus one more time and end on

[ending note]
|-------------|
|-------------|
|-------------|
|--------0~---|
|--------0~---|
|--////--0~---|
   ^ pick slide


comments
We did not receive enough feedback on this tab! Please rate:
print report bad tab
1 2 3 4 5
I want to post or [tab]
guest
You may want to rate the tab now too:
select rating
Please do not post tabs as comments. Select "correction" instead!