Oops, an error
Loading. Please wait.

Bitter Taste Bass Tab

version 1
version 1

Whole song

Interactive

5,856 views 6 this week
1 commentread comment
1 2 3 4 5
accurate
x 6
add to favorites
launch autoscroll
font size
0
reset
guitar tuner
Autoscroll
slow
fast
+/-
esc
set tempo
stop
Help us to improve Ultimate-Guitar.com Take our survey!
×
Author
Tuning
mariewong 2,114
D A D G B E
-------------------------------------------------------------------------------
			     BITTER TASTE - Three Days Grace
-------------------------------------------------------------------------------
Tabbed by: mariewong

Tuning: Drop D



Intro:

G|-------------------------|
D|-------------------------|
A|---------------------11--|  [x2]  
D|-5553565--55535653-11----|



Verse:
Just let me say one thing
I've had enough
You're selfish and sorry
You'll never learn how to love
As your world disassembles
Better keep your head up

G|-------------------------|
D|-------------------------|
A|---------------------11--|  [x3]  
D|-5553565--55535653-11----|


Your name, your face
Is all you have left now
Betrayed, disgraced
You've been erased

G|--------------------|
D|--------------------|
A|--------------------|  
D|-5~--8~--6~--5~-8~--|



Chorus:
So long, so long
I have erased you
So long, so long
I've wanted to waste you
So long, so long
I have erased you
I have escaped
The bitter taste of you

G|--------------------------------------------|
D|--------------------------------------------|
A|--------------------------------------------|  
D|-101010-888-666-55555555-6-66666-8-8888888--|

G|--------------------------------------------|
D|--------------------------------------------|
A|--------------------------------------------|  
D|-101010-888-666-55555555-6-66666-8-8888888--|

G|----------------------------|
D|----------------------------|
A|-4(x16)--------4(x16)----3--|  
D|--------3(x16)--------333---|

G|-------------------------|
D|-------------------------|
A|---------------------11--| 
D|-5553565--55535653-11----|



Verse:
Just let me clear my head
I think I've had too much
You're so disappointing
But you make good use of it
As your world disassembles
Better keep your head up

G|-------------------------|
D|-------------------------|
A|---------------------11--|  [x3]  
D|-5553565--55535653-11----|


Your name, your face
Is all you have left now
Betrayed, disgraced
You've been erased

G|--------------------|
D|--------------------|
A|--------------------|  
D|-5~--8~--6~--5~-8~--|



Chorus:
So long, so long
I have erased you
So long, so long
I've wanted to waste you
So long, so long
I've wanted to waste you
So long, so long
I have erased you
I have escaped
The bitter taste of you

G|--------------------------------------------|
D|--------------------------------------------|
A|--------------------------------------------|  
D|-101010-888-666-55555555-6-66666-8-8888888--|

G|--------------------------------------------|
D|--------------------------------------------|
A|--------------------------------------------|  
D|-101010-888-666-55555555-6-66666-8-8888888--|

G|----------------------------|
D|----------------------------|
A|-4(x16)--------4(x16)----3--|  
D|--------3(x16)--------333---|



Solo:

G|-------------------------|
D|-------------------------|
A|---------------------11--|  [x3]  
D|-5553565--55535653-11----|


G|-------------------------------------------------------|
D|-------------------------------------------------------|
A|-4444444~-----33---4444444~----33---4444444~-----33----|  
D|----------3333--3~---------3333--3~----------3333--3~--|


Your name, your face
Is all you have left now
Disgraced, betrayed
You've been erased

G|--------------------------------|
D|--------------------------------|
A|-3(x16)-1(x16)------------------|  
D|---------------6(x16)-5(x6)-8~--|



Chorus:
So long, so long
I have erased you
So long, so long
I've wanted to waste you
So long, so long
I've wanted to waste you
So long, so long
I have erased you
I have escaped
The bitter taste of you
I have escaped
The bitter taste of you

G|--------------------------------------------|
D|--------------------------------------------|
A|--------------------------------------------|  
D|-101010-888-666-55555555-6-66666-8-8888888--|

G|--------------------------------------------|
D|--------------------------------------------|
A|--------------------------------------------|  
D|-101010-888-666-55555555-6-66666-8-8888888--|

G|--------------------------------------|
D|--------------------------------------|
A|-4(x16)--------4(x16)----3-4(x16)-3~--|  
D|--------3(x16)--------333-------------|



Outro:

G|------------------------|        |-----|
D|------------------------|        |-----|
A|-3331343-33313431---66--|  [x3]  |-3~--|  
D|------------------66----|        |-----|






| /  slide up
| \  slide down
| h  hammer-on
| p  pull-off
| ~  vibrato
| +  harmonic
| x  Mute note
===============================================================================
Suggest correction
What's this?
You can suggest a correction to this tab. Community and Mods will review your correction and vote to approve or reject it.
comments
print report bad tab
1 comment total.
0 reply
Harrison012192 65 wrote on November 29 2009, 06:45 pm

little too much strumming in some parts, but overall not bad at all. Thanks

guest
You may want to rate the tab now too:
select rating
Please do not post tabs as comments. Select "correction" instead!