Oops, an error
Loading. Please wait.

Bitter Taste Tab

version 1
version 1

Whole song

Interactive

38,847 views 24 this week
5 commentsread comments
1 2 3 4 5
x 14
add to favorites
launch autoscroll
font size
0
reset
how to read this tab
guitar tuner
Autoscroll
slow
fast
+/-
esc
set tempo
stop
Help us to improve Ultimate-Guitar.com Take our survey!
×
Author
Difficulty
Tuning
novice
D A D G B E
awesome new song from Life Starts Now album
This song is in drop D

Im excited to say this is my first tab, but don't worry its still good. Couldn't figure 
the solo but i got the rest of the song so enjoy.

woot!! first to post the guitar tab for this song

Intro: x2
E|----------------------------------------------|
B|----------------------------------------------|
G|----------------------------------------------|
D|-5-5-5-3-5-6-5-----5-5-5-3-5-6-5-3--1----8----|
A|-5-5-5-3-5-6-5-----5-5-5-3-5-6-5-3--1----8----|
D|-5-5-5-3-5-6-5-----5-5-5-3-5-6-5-3--1----8----|

Verse: x3
E|----------------------------------------------|
B|----------------------------------------------|
G|----------------------------------------------|
D|------------------------------------1----8----|
A|------------------------------------1----8----|
D|-5-5-5-3-5-6-5-----5-5-5-3-5-6-5-3--1----8----|

Pre-chorus: x2
E|----------------------------|    |----------------------------------|
B|-8--6--4--3-1-3-4---6-3-----|    |----------------------------------|
G|----------------------------| or |----------------------------------|
D|----------------------------|    |-17--15--13--12-10-12-13---15-12--|
A|----------------------------|    |----------------------------------|
D|----------------------------|    |----------------------------------|

Chorus: x2
E|---------------------------|
B|---------------------------|
G|---------------------------|
D|-10--8--6--5----6---8------|
A|-10--8--6--5----6---8------|
D|-10--8--6--5----6---8------|

Chorus part 2:
E|---------------------------------------|
B|---------------------------------------|
G|-13--12--------------------------------|
D|-11--11--15------3---3-3-3--3-3--3-3-3-|
A|-11--11--11------3---3-3-3--3-3--3-3-3-|
D|-11--11--11------3---3-3-3--3-3--3-3-3-|
   ^eleven

E|---------------------------------------|
B|---------------------------------------|
G|---------------------------------------|
D|-11--11--15------3---3-3-3--3-3--3-3-3-|
A|-11--11--11------3---3-3-3--3-3--3-3-3-|
D|-11--11--11------3---3-3-3--3-3--3-3-3-|

Intro: x1
E|----------------------------------------------|
B|----------------------------------------------|
G|----------------------------------------------|
D|-5-5-5-3-5-6-5-----5-5-5-3-5-6-5-3--1----8----|
A|-5-5-5-3-5-6-5-----5-5-5-3-5-6-5-3--1----8----|
D|-5-5-5-3-5-6-5-----5-5-5-3-5-6-5-3--1----8----|

Verse: x3
E|----------------------------------------------|
B|----------------------------------------------|
G|----------------------------------------------|
D|------------------------------------1----8----|
A|------------------------------------1----8----|
D|-5-5-5-3-5-6-5-----5-5-5-3-5-6-5-3--1----8----|

Pre-chorus: x2
E|----------------------------|    |----------------------------------|
B|-8--6--4--3-1-3-4---6-3-----|    |----------------------------------|
G|----------------------------| or |----------------------------------|
D|----------------------------|    |-17--15--13--12-10-12-13---15-12--|
A|----------------------------|    |----------------------------------|
D|----------------------------|    |----------------------------------|

Chorus part 2:
E|---------------------------------------|
B|---------------------------------------|
G|-13--12--------------------------------|
D|-11--11--15------3---3-3-3--3-3--3-3-3-|
A|-11--11--11------3---3-3-3--3-3--3-3-3-|
D|-11--11--11------3---3-3-3--3-3--3-3-3-|
   ^eleven

E|---------------------------------------|
B|---------------------------------------|
G|---------------------------------------|
D|-11--11--15------3---3-3-3--3-3--3-3-3-|
A|-11--11--11------3---3-3-3--3-3--3-3-3-|
D|-11--11--11------3---3-3-3--3-3--3-3-3-|


Outro:
E|-----------------------------------------------------|
B|-----------------------------------------------------|
G|-----------------------------------------------------|
D|-5-5-5-3-5-6-5-----10-10-10-8-10-11-10-8--6----13----|
A|-5-5-5-3-5-6-5-----10-10-10-8-10-11-10-8--6----13----|
D|-5-5-5-3-5-6-5-----10-10-10-8-10-11-10-8--6----13----|

E|-----------------------------------------------------------|
B|-----------------------------------------------------------|
G|-----------------------------------------------------------|
D|-10-10-10-8-10-11-10-----10-10-10-8-10-11-10-8--6----13----|
A|-10-10-10-8-10-11-10-----10-10-10-8-10-11-10-8--6----13----|
D|-10-10-10-8-10-11-10-----10-10-10-8-10-11-10-8--6----13----|


And thats pretty much it other than the solo but i hope to have it up soon so hope you 
my tab.
Suggest correction
comments
print report bad tab
5 comments total. Showing first comments.
-2 reply
ShredMachine119 10 Aug 01, 2010 08:19 PM

The listed tuning in incorrect. You have to drop all strings a half step down (EbAbDbGbBbEb). The reason for this is that the intro actually consists of power chords, rather than single notes.

-2 reply
ShredMachine119 10 Aug 01, 2010 08:20 PM

The above tuning is incorrect. You must tune all strings a half step down. This is because the intro actually consists of power chords, rather than single notes

0 reply
ShredMachine119 10 Aug 01, 2010 08:21 PM

sorry aboutthe second comment my browser f'ed up on me

guest
You may want to rate the tab now too:
select rating
Wanna post a correction for this tab? Suggest correction