Oops, an error
Loading. Please wait.

Born Like This Tab

version 1
version 1

Whole song

Interactive

12,079 views 3 this week
6 commentsread comments
1 2 3 4 5
x 15
add to favorites
launch autoscroll
font size
0
reset
how to read this tab
guitar tuner
Autoscroll
slow
fast
+/-
esc
set tempo
stop
Help us to improve Ultimate-Guitar.com Take our survey!
×
tuning
1:E
2:B
3:G
4:D
5:A
6:D

KEY
^BEND HIGH
~VIBROTO


VERY EASY


-------------------------------|
-------------------------------|
-------------------------------|
-------------------------------|  4X
-------------------------------|
-0--0-0-2-2-3-6-6-6-6-5^-------|


-------------------------------|
-------------------------------|
-------------------------------|
-0-2-3-6-6-6-6-5-5-5-----------|  4X
-0-2-3-6-6-6-6-5-5-5-----------|
-0-2-3-6-6-6-6-5-5-5-----------|


---------------------------------------------------------------|
---------------------------------------------------------------|
---------------------------------------------------------------| 3X
-0-0-0---------------------------------------------------------|
-------0--0-------------1-1--0-0-------1---0----------1-1----3-|
------------2-2-2-3--0-----------0-0-0-------3-3-3-5-----------|

PM_____________________________

-------------------------------|
-------------------------------|
-------------------------------|
-------------------------------|
-0-0-0-0------0-0-0-0----------|
-0-0-0-0------0-0-0-0----------|


-------------------------------|
-0-----0----0------------------|
-0-----2----0------------------|
-3-----2----3------------------|
-2-----0----2------------------|
-------------------------------|

--------------------------------------|
--------------------------------------|
--------------------------------------|
-88888888--8--X-3-3---X-X-3-3-3--X--1-|
-88888888--8--X-3-3---X-X-3-3-3--X--1-|
-88888888--8--X-3-3---X-X-3-3-3--X--1-|


THERE THATS ALL THATS PRETTY MUCH TO THE SONGGOOD LUCK ITS FUN I HAVE THE SONGBOOK SO IT 
BE PERFECT OK HAVE FUN AND IF THERES IS ANY REQUEST FOR ANY MORE SONGS EMIAL ME   SKATEBOY0404@VERIZON.NET
Suggest correction
comments
print report bad tab
6 comments total. Showing first comments.
+1 reply
FerriuS 36 Aug 17, 2004 12:00 AM

Nice tab, thanx for a bass part, and i have 2 corrections (really there is much more mistakes, but i'll say two biggest of them):
1. I think that first part of intro (which is played on D string) is palm muted.
2. Second part of intro uses some kind of add-ons to powerchords, and it is really played this way:
e|-----------------------------------|
B|-----------------------------------|
G|-2--4--5--8-8-8-8--7-7-7-----------|
D|-0--2--3--6-6-6-6--5-5-5-----------|
A|-0--2--3--6-6-6-6--5-5-5-----------|
D|-0--2--3--6-6-6-6--5-5-5-----------|

0 reply
FerriuS 36 Aug 17, 2004 12:00 AM

My god... is tab book containing so many mistakes?

0 reply
FerriuS 36 Aug 17, 2004 12:00 AM

Other mistakes are in pre-chorus (which is 80% wrong) - i'm too lazy to write correct version, sorry... :)

guest
You may want to rate the tab now too:
select rating
Wanna post a correction for this tab? Suggest correction