Oops, an error
Loading. Please wait.

Born Like This Tab

version 3
version 3

Whole song

Interactive

266 views 1 this week
5 commentsread comments
1 2 3 4 5
1 last vote to show rating
add to favorites
launch autoscroll
font size
0
reset
how to read this tab
guitar tuner
Autoscroll
slow
fast
+/-
esc
set tempo
stop
Help us to improve Ultimate-Guitar.com Take our survey!
×
Author
Difficulty
Tuning
novice
D A D G B E
Intro pt.1
e--------------------------| x4
b--------------------------|
g--------------------------|
d--------------------------|
a--------------------------|
d-0--0-0-2-2-3--6--6-6-5-5--|
  *  * * * * *  *  * * * *

Intro pt.2
e--------------------------| x4
b--------------------------|
g-2--2-2-4--5--8--8-8-7-7--|
d-0--0-0-2--3--6--6-6-5-5--|
a-0--0-0-2--3--6--6-6-5-5--|
d-0--0-0-2--3--6--6-6-5-5--|

Verse

e--------
b--------
g--------
d-0-0-0-0
a-0-0-0-0  Repeat it sometimes
d-0-0-0-0
  * * * *
Pre-Chorus

let ring------let ring------let ring------

e--------------------------------------------------------------------------|
b--------------------------------------------------------------------------|
g-----------------------------------------3-3-3-3-3-3-3-3------------------|
d-10---------7--------------10------------1-1-1-1-1-1-1-1--10-10----10--10-|
a-10---------7--------------10------------1-1-1-1-1-1-1-1---8--8-x-x-8--8--|
d-10---------7--------------10------------1-1-1-1-1-1-1-1---8--8-x-x-8--8--|

cont.
e----|
b----|
g---3|
d---1|
a---1|
d-x-1|

Chorus
e--------------------------| x8
b--------------------------|
g-2--2-2-4--5--8--8-8-7-7--|
d-0--0-0-2--3--6--6-6-5-5--|
a-0--0-0-2--3--6--6-6-5-5--|
d-0--0-0-2--3--6--6-6-5-5--|

Pre-Chorus

Chorus

Bridge

let ring------let ring------let ring------let ring------let ring-------

e-----------------------------------------------------------------------|
b-----------------------------------------------------------------------|
g-----------------------------------------------------------------------|
d-10----------7-------------10------------7-------------10------------7-|
a-10----------7-------------10------------7-------------10------------7-|
d-10----------7-------------10------------7-------------10------------7-|

cont.

e-------------------------------------|
b-------------------------------------|
g-3-3-3-3-3-3-3-3-------------------3-|
d-1-1-1-1-1-1-1-1---10-10----10-10--1-|
a-1-1-1-1-1-1-1-1---8--8-----8--8---1-|
d-1-1-1-1-1-1-1-1-x-8--8-x-x-8--8-x-1-|

*=palm mute
x=dead note

After that repeat some parts.
Hope you enjoy rate and leave the comment!
Suggest correction
Give kudos to tab author, rate the tab!
1 2 3 4 5
comments
print report bad tab
5 comments total. Showing first comments.
0 reply
Igor0400 266 Aug 29, 2013 09:35 PM

i forgot the verse

e--------
b--------
g--------
d--------
a-0-0-0
d-0-0-0

repeat sometimes

0 reply
Raju345PL 38 May 29, 2015 05:01 PM

Nice tab :)

0 reply
Igor0400 266 Jun 10, 2015 10:00 PM

Thank you !

guest
You may want to rate the tab now too:
select rating
Wanna post a correction for this tab? Suggest correction