Oops, an error
Loading. Please wait.

Break Bass Tab

version 1
version 1

Whole song

Interactive

63,521 views 33 this week
10 commentsread comments
1 2 3 4 5
excellent!
x 19
add to favorites
launch autoscroll
font size
0
reset
guitar tuner
Autoscroll
slow
fast
+/-
esc
set tempo
stop
Help us to improve Ultimate-Guitar.com Take our survey!
×
Author
Tuning
D A D G B E
-------------------------------------------------------------------------------
			     BREAK - Three Days Grace
-------------------------------------------------------------------------------

Tabbed By : mariewong

Tuning: Drop D

Intro:

G|---------------------------|--------------------------|
D|---------------------------|--------------------------|
A|-5555---------3333-33-30~--|-5555---------3333-3305~--|
D|------6-35653--------------|------6-35653-------------|

Verse:
Tonight, my head is spinning
I need something to pick me up
I've tried but nothing is working
I won't stop, I won't say I've had enough

G|---------------------|------------------------|
D|---------------------|------------------------|
A|--------5--5555---3--|--------5--1-0-------0--|  [x2]
D|-00-300---------0----|-00-300--------5-3-5----|

Pre-chorus:
Tonight, I start the fire
Tonight, I break away

G|---------------------------------------------------|
D|---------------------------------------------------|
A|-11-11-11~--11-11-11-3~----------------------------|
D|-------------------------55-55-55~--55-55-555-7-3--|

Chorus:
Break. Away from everybody
Break. Away from everything
If you can't stand the way this place is
Take, yourself, to higher places

G|---------------------------|--------------------------|
D|---------------------------|--------------------------|
A|-5555---------3333-33-30~--|-5555---------3333-3305~--|
D|------6-35653--------------|------6-35653-------------|


G|------------------------|--------------------------|
D|------------------------|--------------------------|
A|-------------3333-33-0--|-5555---------3333-3305~--|
D|-0000-0-3-2-------------|------6-35653-------------|

Pre-verse:

G|---------------------|
D|---------------------|
A|-------5~--------5~--|
D|-0[x6]-----0[x6]-----|

Verse:
At night, I feel like a vampire
It's not right but I just can't give it up
I'll try to get myself higher
Let's go. We're gonna light it up

G|---------------------|------------------------|
D|---------------------|------------------------|
A|--------5--5------3--|--------5--1-0-------0--|  [x2]
D|-00-300-----353-0----|-00-300--------5-3-5----|

Pre-chorus:
Tonight, I start the fire
Tonight, I break away

G|---------------------------------------------------|
D|---------------------------------------------------|
A|-11-11-11~--11-11-11-3~----------------------------|
D|-------------------------55-55-55~--55-55-555-7-3--|

Chorus:
Break. Away from everybody
Break. Away from everything
If you can't stand the way this place is
Take, yourself, to higher places

G|---------------------------|--------------------------|
D|---------------------------|--------------------------|
A|-5555---------3333-33-30~--|-5555---------3333-3305~--|
D|------6-35653--------------|------6-35653-------------|


G|------------------------|--------------------------|
D|------------------------|--------------------------|
A|-------------3333-33-0--|-5555---------3333-3305~--|
D|-0000-0-3-2-------------|------6-35653-------------|

Bridge:

G|---------------------|----------------------|
D|---------------------|----------------------|
A|-55-3-5--3-55-3-5-3--|-55-3-5--1-0-------0--|
D|---------------------|-------------5-3-5----|

Solo:

G|----------------------|---------------------|
D|----------------------|---------------------|
A|-5-5-55-0--3-1---5-0--|-553-0--1-0-------0--|  [x2]
D|---------------0------|------------5-3-5----|

|--------------|------------------|
|--------------|------------------|
|-1-0-------0--|-1-0-------0--5~--|
|-----5-3-5----|-----5-3-5--------|

If you can't stand the way this place is
Take, yourself, to higher places

Chorus:
Break. Away from everybody
Break. Away from everything
If you can't stand the way this place is
Take, yourself, to higher places
Higher places
To higher places
Higher places
Take yourself to higher places

G|---------------------------|--------------------------|
D|---------------------------|--------------------------|
A|-5555---------3333-33-30~--|-5555---------3333-3305~--|
D|------6-35653--------------|------6-35653-------------|


G|------------------------|--------------------------|
D|------------------------|--------------------------|
A|-------------3333-33-0--|-5555---------3333-3305~--|
D|-0000-0-3-2-------------|------6-35653-------------|

G|---------------------------|--------------------------|
D|---------------------------|--------------------------|
A|-5555---------3333-33-30~--|-5555---------3333-3305~--|
D|------6-35653--------------|------6-35653-------------|

G|---------------------------|------------------------------|
D|---------------------------|------------------------------|
A|-5555---------3333-33-30~--|-5555---------3333-3305~------|
D|------6-35653--------------|------6-35653-------------0~--|


| /  slide up
| \  slide down
| h  hammer-on
| p  pull-off
| ~  vibrato
| +  harmonic
| x  Mute note
===============================================================================
Suggest correction
comments
print report bad tab
10 comments total. Showing first comments.
-1 reply
MusicMan24 1,114 wrote on September 26 2009, 08:01 pm

This is probably played on a 5-string

+1 reply
Caltelt 31 wrote on October 10 2009, 04:46 pm

^In the music video hes using a 4 string Stingray.

Great tab.

+1 reply
U B the band 3,023 wrote on December 1 2009, 03:39 pm

I don't feel like tabbing the whole tab out myself so here are some corrections.


Bridge: Bass (PLAY 3 TIMES)
G|---------------------------------------------------------|
D|---------------------------------------------------------|
A|-----5--------------5---------------------1-0-------0----|
D|--0-----7-----8-7-0----7-----0--10--7---------5-3-5------|

Bridge: Bass (PLAY ONCE)
G|---------------------------------------------------------|
D|---------------------------------------------------------|
A|--1-0-------0---1-0-------0--5---------------------------|
D|------5-3-5---------5-3-5--------------------------------|

guest
You may want to rate the tab now too:
select rating
Please do not post tabs as comments. Select "correction" instead!