Oops, an error
Loading. Please wait.

Break Chords

version 1
version 1

Whole song

Interactive

33,340 views 27 this week
2 commentsread comments
1 2 3 4 5
accurate
x 7
add to favorites
launch autoscroll
font size
0
reset
transpose
0
reset
display chords
guitar tuner
Autoscroll
slow
fast
+/-
esc
set tempo
stop
Help us to improve Ultimate-Guitar.com Take our survey!
×
3 Days Grace
Break
Life Starts Now
2009
Submitted by: paramore_fans@yahoo.com

Key: F

Tuning: Drop D

Chords used: Drop D only
Dm - 000xxx
F -  333xxx
Gm - 555xxx
C -  10-10-10-x-x-x
Bb - 888xxx
A -  777xxx

Chords used: for Standard EADGBe
Dm - xx0231
F -  133211
Gm - 355333
C -  x32010
Bb - x13331
A -  x02220


Intro: 
x2


Verse 1:
Dm
  Tonight my head is spinning
       Bb  A     Gm F    Gm A
I need something to pick me up
Dm
  I've tried but nothing
is working I won't stop
  Bb    A   Gm   F   Gm A
I won't say I've had e--nough


Refrain 1:
Bb                        C
  Tonight I start the fire
Gm
  Tonight I break away


Chorus:
Dm    F Gm       C    Bb A
Break! Away from everybo-dy
Dm    F Gm       C    Bb   A
Break! Away from everything
   Dm         F
If you can't stand the
C              A
way this place is
Dm       F
Take yourself to
C         Bb A
higher places


Interlude:
Dm--
Oh oh


Verse 2:
Dm
  At night I feel like a
vampire It's not right
Bb A    Gm    F    Gm A
I  just can't give it up
Dm
  I'll try to get myself
higher Let's go
Bb    A  Gm F     Gm A
We're gonna light it up


Refrain 2:
Bb                          C
  Tonight We  start the fire
Gm
  Tonight We break away


(Repeat Chorus)


Interlude: Dm---Bb-A-Gm-F-Gm-A-

Guitar Solo:
   Dm       A           Dm           A           
      A
e|-10-|-10--10/12-|-18--17--15-|-17--10/12-|-18--17--15-|-17-|
B|----|-----------|------------|-----------|------------|----|
G|----|-----------|------------|-----------|------------|----|
D|----|-----------|------------|-----------|------------|----|
A|----|-----------|------------|-----------|------------|----|
D|----|-----------|------------|-----------|------------|----|

      Bb        Gm
e|-15--13--12-|-13-|
B|------------|----|
G|------------|----|
D|------------|----|
A|------------|----|
D|------------|----|

     Dm         A           Dm           A           
          A
e|-13--10-|-10--10/12-|-18--17--15-|-17--10/12-|-18--17--15-|-17---------|
B|--------|-----------|------------|-----------|------------|-----18--15-|
G|--------|-----------|------------|-----------|------------|------------|
D|--------|-----------|------------|-----------|------------|------------|
A|--------|-----------|------------|-----------|------------|------------|
D|--------|-----------|------------|-----------|------------|------------|

      Bb        Gm   Bb  A   Gm   
  Gm  A
e|-15--13--12-|-13-|-6-|-5-|----|---|---|-5-|
B|------------|----|---|---|-8--|-6-|-8-|---|
G|------------|----|---|---|----|---|---|---|
D|------------|----|---|---|----|---|---|---|
A|------------|----|---|---|----|---|---|---|
D|------------|----|---|---|----|---|---|---|

  Bb   A  Bb    C   Dm   C    
   Dm
e|-6-|-5-|-6-|-10-|-12-|-10-|-10-|-12-|
B|---|---|---|----|----|----|----|----|
G|---|---|---|----|----|----|----|----|
D|---|---|---|----|----|----|----|----|
A|---|---|---|----|----|----|----|----|
D|---|---|---|----|----|----|----|----|


Verse 3:
   Dm
If you can't stand
The way this place is
Take, yourself to
higher places


(Repeat Chorus)


Outro:
Dm F Gm F
Oh oh
C      Bb A
Higher places
Dm F Gm F
Oh oh
   C      Bb A
to Higher places
Dm F Gm F
Oh oh
C      Bb A
Higher places
Dm       F
Take yourself to
C      Bb A  Dm(hold)
higher places
Suggest correction
comments
print report bad tab
2 comments total.
0 reply
michaelater 21 wrote on May 20 2011, 09:09 pm

looks hard ; cant wait to try it

0 reply
jacobwieteska 12 wrote on September 25 2016, 08:19 pm

transpose it -3 makes it much much easyer

guest
You may want to rate the tab now too:
select rating
Please do not post tabs as comments. Select "correction" instead!