Oops, an error
Loading. Please wait.

Break Tab

version 1
version 1

Solo

Interactive

36,898 views 18 this week
9 commentsread comments
1 2 3 4 5
excellent!
x 21
add to favorites
launch autoscroll
font size
0
reset
how to read this tab
guitar tuner
Autoscroll
slow
fast
+/-
esc
set tempo
stop
Help us to improve Ultimate-Guitar.com Take our survey!
×
Author
Difficulty
Tuning
novice
D A D G B E
Three Days Grace ~ Break (Solo) ~ Drop D

This is my first tab, so sorry for transcription rhythym problems or whatever.

Solo is 99.99% correct, I'm sure of it.

Enjoy :)

e|-----------15h17h18–17–15–17v--------15h17h18–17–15–17v–15–13–12–13-------|
B|–15—15v-------------------------------------------------------------------|
G|--------------------------------------------------------------------------|
D|--------------------------------------------------------------------------|
A|--------------------------------------------------------------------------|
D|--------------------------------------------------------------------------|


e|-----------15h17h18–17–15–17v--15h17h18–17–15–17–15–13–15–13–12–13--------|
B|–17b—15v------------------------------------------------------------------|
G|--------------------------------------------------------------------------|
D|--------------------------------------------------------------------------|
A|--------------------------------------------------------------------------|
D|--------------------------------------------------------------------------|


e|--------------------------------------------------------------------------|
B|--------------------------------13------13–-15----------------------------|
G|–15–14–12-------12–14–15–14–15------15------------------------------------|
D|-----------15-------------------------------------------------------------|
A|--------------------------------------------------------------------------|
D|--------------------------------------------------------------------------|
Suggest correction
comments
print report bad tab
9 comments total. Showing first comments.
+1 reply
caboose888 10 wrote on September 5 2009, 04:13 pm

sounds great

0 reply
iamghost 807 wrote on September 18 2009, 11:04 am

i think your

e|-----------15h17h18–17–15–17v--------15h17h18–17–15–17v–15–13–12–13------|
B|–15—15v---------------------------------------------------------------|
G|----------------------------------------------------------------------|
D|----------------------------------------------------------------------|
A|----------------------------------------------------------------------|
D|----------------------------------------------------------------------|

well i think the 15h17h18 part is actually sweeped picked. i think the notes are.

e|--------------18-17-15-17v------------18-17-15-17v-15-13-12-13-|
B|-----------16----------------------16--------------------------|
G|–––-----17----------------------17-----------------------------|
D|----14----------------------14---------------------------------|
A|---------------------------------------------------------------|
D|---------------------------------------------------------------|

it's just what it sounds like and it sounds cooler haha.

+1 reply
Zach101 886 wrote on October 10 2009, 08:05 pm

it might sound cooler but my way is easier ;) lol

guest
You may want to rate the tab now too:
select rating
Please do not post tabs as comments. Select "correction" instead!