Oops, an error
Loading. Please wait.

Break Tab

version 1
version 1

Interactive

56,525 views 21 this week
3 commentsread comments
1 2 3 4 5
worth learning
x 5
add to favorites
launch autoscroll
font size
0
reset
how to read this tab
guitar tuner
Autoscroll
slow
fast
+/-
esc
set tempo
stop
Help us to improve Ultimate-Guitar.com Take our survey!
×
Author
Difficulty
Tuning
novice
D A D G B E
                          Three Days Grace
                             "Break"
                          Life Starts Now
--------------------------_______________-----------------------------------
DROP D-

This song is brand new, I wrote this tab the night 3DG streamed it on thier website on
I'm excited about this album, so I just want to get this tab out there, I've just done
of this buy ear, and the solo is nowhwere near perfect, so if you figure more or hear 
correct me please!!

Intro and chorus.
e|----------------------------------------------------------------|
g|----------------------------------------------------------------|
b|--19~-----------------------------------------------------------|
d|-------0--12-12--0-0-3-5-3-0----00-10-00-10-7-------------------|
a|-------0--12-12--0-0-3-5-3-0----00-10-00-10-7-------------------|
D|-------0--12-12--0-0-3-5-3-0----00-10-00-10-7-------------------|


Verse 1:

e|-----------------------------------------------------------------|
b|-----------------------------------------------------------------|
g|--------------------------------7-777-777-77-10-7-777-777-7------|
d|---8-7-5-3-5-7-----(X2)---------xxxxxxxxxxxxxxxxxxxxxxxxxxx------|
a|---8-7-5-3-5-7------------------5-555-555-55-8-5-555-555-5-------|
D|---8-7-5-3-5-7---------------------------------------------------|


Chorus

before 2nd verse, play this:

a|---xxxx-0----xxxx-0-|
D|---xxxx-0----xxxx-0-|


Verse 2 is same as 1st!


Chorus 2:

Solo:
                                                        solo ends on
e|------------------18-17-15-17-----------18-17-15-17-|---------------|
b|-------------17--------------------17---------------|---------------|
g|--->19~~-19--------------------19-------------------|---------19~---|
d|----------------------------------------------------|---------------|
a|----------------------------------------------------|---------------|
D|----------------------------------------------------|---------------|

                                     GTR 2 ends on open strings!
Thats really all of the solo i can figure so far.

Chorus until end end on open.

OPEN is  d|--0--|
         a|--0--|
         D|--0--|


yeah, right now i'm trying to learn it from computer speakers, but from the help of
3DG fans will help get it 100%, as well the whole Life Starts Now album!!!!
Suggest correction
What's this?
You can suggest a correction to this tab. Community and Mods will review your correction and vote to approve or reject it.
comments
print report bad tab
3 comments total.
0 reply
guitarguy229 23 wrote on September 2 2009, 04:03 pm

hey man great job!! there are just a few minor thing that need to be changed now at the begining its not 19~ its 17~ then when in the verse between the 8-7-5-3-5-7 you play a 7~ on the g its sounds corect other than those im still trying to learn the solo but if i find it out ill post it
pce

0 reply
guitarguy229 23 wrote on September 2 2009, 04:06 pm

lol im correcting my own post! haha ok so after the intro you do a d open then go into the 7~ on g with the a string open it sounds sick!! try it and lemme know jopolkowski@live.com

0 reply
guitarguy229 23 wrote on September 3 2009, 11:29 am

hey man got more to add to it lol
ok in the solo move everything over 2 frets sounds beter than on 19
pce

guest
You may want to rate the tab now too:
select rating
Please do not post tabs as comments. Select "correction" instead!