Oops, an error
Loading. Please wait.

Break Bass Tab

version 2
version 2

Whole song

Interactive

9,531 views 1 this week
2 commentsread comments
1 2 3 4 5
accurate
x 5
add to favorites
launch autoscroll
font size
0
reset
guitar tuner
Autoscroll
slow
fast
+/-
esc
set tempo
stop
Help us to improve Ultimate-Guitar.com Take our survey!
×
Author
Difficulty
intermediate
Drop D 

G|----------------------------------------------------------|
D|----------------------------------------------------------|
A|----------------------------------------------------------|
D|0-00-35-775-3--101010-10-7---0-00-35-775-3--101010-10-7-12|

G|----------------------------------------|
D|----------------------------------------|
A|-------5-5555-5---3---------5-----------| x2
D|00-30-0--------0-----00-30-0--8-7-53-5-7|

G|---------------------------------------|
D|---------------------------------------|
A|---------------------------------------|
D|8-8-8888--8-888-10--5-5-5555-5555-5h7h3|

G|----------------------------------------------------------|
D|----------------------------------------------------------|
A|----------------------------------------------------------|
D|0-00-35-775-3--101010-10-7---0-00-35-775-3--101010-10-7-12|

G|-------------------------------------------------------|
D|-------------------------------------------------------|
A|-------------------------------------------------------|
D|0-00-5--10--101010-10-7---0-00-35-775-3--101010-10-7-12|

G|----------------|
D|----------------|
A|----------------|
D|0000-00--0000-00|

G|----------------------------------------|
D|----------------------------------------|
A|-------5-5555-5---3---------5-----------| x2
D|00-30-0--------0-----00-30-0--8-7-53-5-7|

G|---------------------------------------|
D|---------------------------------------|
A|---------------------------------------|
D|8-8-8888--8-888-10--5-5-5555-5555-5h7h3|

G|----------------------------------------------------------|
D|----------------------------------------------------------|
A|----------------------------------------------------------|
D|0-00-35-775-3--101010-10-7---0-00-35-775-3--101010-10-7-12|

G|-------------------------------------------------------|
D|-------------------------------------------------------|
A|-------------------------------------------------------|
D|0-00-5--10--101010-10-7---0-00-35-775-3--101010-10-7-12|

G|-------------------------------------|
D|-------------------------------------|
A|----------3-0--5-0----3-0------------|
D|0--0--0--0----3-----0------8-7-53-5-7|

G|------------------------------------------|
D|------------------------------------------|
A|------------------------------------------|
D|0--0--0-10-7--3-12-7---0-12-7---8-7-53-5-7| x2

G|----------------------------------------------------|
D|----------------------------------------------------|
A|----------------------------------------------------|
D|8-7-53-5-7-8-7-53-5-7--0---3--0---0--5--2--0--3--0--|

G|----------------------------------------------------------|
D|----------------------------------------------------------|
A|----------------------------------------------------------|
D|0-00-35-775-3--101010-10-7---0-00-35-775-3--101010-10-7-12|

G|-------------------------------------------------------|
D|-------------------------------------------------------|
A|-------------------------------------------------------|
D|0-00-5--10--101010-10-7---0-00-35-775-3--101010-10-7-12|

G|----------------------------------------------------------|
D|----------------------------------------------------------|
A|----------------------------------------------------------|
D|0-00-35-775-3--101010-10-7---0-00-35-775-3--101010-10-7-12|

G|---------------------------------------------------------------|
D|---------------------------------------------------------------|
A|---------------------------------------------------------------|
D|0-00-5--10--101010-10-7---0-00-35-775-3--101010-10-7-12-0------|
                                                   letring^
Suggest correction
What's this?
You can suggest a correction to this tab. Community and Mods will review your correction and vote to approve or reject it.
comments
print report bad tab
2 comments total.
0 reply
th_brck_rcks 512 wrote on October 21 2009, 06:45 pm

This is a good tab :)
kick ass song ^_^

0 reply
hightide69 24 wrote on January 18 2010, 05:51 pm

good tab! this sounds great

guest
You may want to rate the tab now too:
select rating
Please do not post tabs as comments. Select "correction" instead!