Oops, an error
Loading. Please wait.

Break Bass Tab

version 3
version 3

Whole song

Interactive

5,758 views 9 this week
no commentswrite comment
1 2 3 4 5
please rate
add to favorites
launch autoscroll
font size
0
reset
guitar tuner
Autoscroll
slow
fast
+/-
esc
set tempo
stop
Help us to improve Ultimate-Guitar.com Take our survey!
×
Author
-------------------------------------------------------------------------------
			     BREAK - Three Days Grace
-------------------------------------------------------------------------------

Tabbed By : Kevin

Tuning:Drop D

intro:
G|-----------------------------------------------------------|
D|-----------------------------------------------------------|
A|-5555-5-----------3333-x3-x0--5555-5-----------3333-x3-0-5-|
D|-------3-5h7-5-3--------------------3-5h7-5-3--------------|

verse:
G|-----------------------------------------------|
D|-----------------------------------------------|x2
A|---------5--5555-5---3----------5--------------|
D|-0-0-00-0---------0-----0-0-00-0---8-7-5-3-5-7-|

pre-chorus:
G|------------------------------------------------|
D|------------------------------------------------|
A|-5-5-55-55--5555-5---8--5-5-55-55--5555-53--10\-|
D|------------------8-----------------------------|

chorus:
G|-----------------------------------------------------------|
D|-----------------------------------------------------------|
A|-5555-5-----------3333-x3-x0--5555-5-----------3333-x3-0-5-|
D|-------3-5h7-5-3--------------------3-5h7-5-3--------------|

G|------------------------------------------------------|
D|------------------------------------------------------|
A|-5555----x3--3333-x3-x0--5555-5-----------3333-x3-0-5-|
D|------x3-----------------------3-5h7-5-3--------------|

pre-verse:
G|-------------------|
D|-------------------|
A|-------5--------5--|
D|-0000-0---0000-0---|

verse:
G|-----------------------------------------------|
D|-----------------------------------------------|x2
A|---------5--5555-5---3----------5--------------|
D|-0-0-00-0---------0-----0-0-00-0---8-7-5-3-5-7-|

pre-chorus:
G|------------------------------------------------|
D|------------------------------------------------|
A|-5-5-55-55--5555-5---8--5-5-55-55--5555-53--10\-|
D|------------------8-----------------------------|

chorus:
G|-----------------------------------------------------------|
D|-----------------------------------------------------------|
A|-5555-5-----------3333-x3-x0--5555-5-----------3333-x3-0-5-|
D|-------3-5h7-5-3--------------------3-5h7-5-3--------------|

G|------------------------------------------------------|
D|------------------------------------------------------|
A|-5555----x3--3333-x3-x0--5555-5-----------3333-x3-0-5-|
D|------x3-----------------------3-5h7-5-3--------------|

pre-solo and solo:
G|-----------------------------------------------|
D|-----------------------------------------------|x3
A|-----------------------------------------------|
D|-0-12\-7--0-8-7-5-12\-7--0010\-7--0-8-7-5-3-5-7-|

G|---------------------------|
D|---------------------------| let open D ring
A|---------------------------|
D|-8-7-5-3-5-7-8-7-5-3-5-7-0-|

chorus: x2
G|-----------------------------------------------------------|
D|-----------------------------------------------------------|
A|-5555-5-----------3333-x3-x0--5555-5-----------3333-x3-0-5-|
D|-------3-5h7-5-3--------------------3-5h7-5-3--------------|

G|------------------------------------------------------|
D|------------------------------------------------------|
A|-5555----x3--3333-x3-x0--5555-5-----------3333-x3-0-5-|
D|------x3-----------------------3-5h7-5-3--------------|

end:
G|-----------------------------|
D|-----------------------------|
A|-----------------------------|
D|-0---------------------------|


| /  slide up
| \  slide down
| h  hammer-on
| p  pull-off
| ~  vibrato
| +  harmonic
| x  Mute note
===============================================================================
Suggest correction
Give kudos to tab author, rate the tab!
1 2 3 4 5
comments
print report bad tab
guest
You may want to rate the tab now too:
select rating
Please do not post tabs as comments. Select "correction" instead!