Oops, an error
Loading. Please wait.

Break Tab

version 3
version 3

Interactive

39,025 views 12 this week
5 commentsread comments
1 2 3 4 5
excellent!
x 13
add to favorites
launch autoscroll
font size
0
reset
how to read this tab
guitar tuner
Autoscroll
slow
fast
+/-
esc
set tempo
stop
Help us to improve Ultimate-Guitar.com Take our survey!
×
Author
Difficulty
Tuning
intermediate
D A D G B E
Tabbed by: Joshua Garcia (joshuag523@aol.com)

Tabs For the song: Break by Three Days Grace
Please rate and let me know if you have any corrections. Thank you.

Ok so this is the tabs for Break, the new single from their new album Life 
Starts Now. I pre-ordered the album on their site so I got to download it 
just last night. Real easy to play.


*Updated on 3/29/10 - Finally got the chance to update this tab. Mainly 
fixed the solo and added the 2nd Guitar for it. The other solo's are 
definitely wrong and version 2 doesn't have proper strumming (I slowed the 
play speed to tell the difference so I KNOW this solo is right.), so I hope 
this helps at least some of you.


Tuning: Drop D (D A D G B E)


Intro
Guitar 1:
E||--------------------|
B||---(fade-in)---15---|
G||--------------------|
D||--------------------|
A||--------------------|
D||--------------------|


E||-------------------------------------------|------------------------------------------|
B||-------------------------------------------|------------------------------------------|
G||-------------------------------------------|------------------------------------------|
D||-0000-0-3-5/7-5-3---10101010---x-10---x-7--|-0000-0-3-5/7-5-3---10101010--x10--7--12--|
A||-0000-0-3-5/7-5-3---10101010---x-10---x-7--|-0000-0-3-5/7-5-3---10101010--x10--7--12--|
D||-0000-0-3-5/7-5-3---10101010---x-10---x-7--|-0000-0-3-5/7-5-3---10101010--x10--7--12--|


Guitar 2:
E||--------------------------------|
B||--------------------------------|
G||-10--9--5\--2----10--9--5/--7---|
D||--------------------------------|
A||--------------------------------|
D||--------------------------------|



Verse
Guitar 1:
E||---------------|
B||---------------|
G||---------------|
D||--8-7-5-3-5-7--|
A||--8-7-5-3-5-7--|
D||--8-7-5-3-5-7--|


E||------------------------------|
B||------------------------------|
G||------------------------------|
D||--8-7-5-3-5-7--8-----/10--5---|
A||--8-7-5-3-5-7--8-----/10--5---|
D||--8-7-5-3-5-7--8-----/10--5---|


Guitar 2:
E||-----------------------|
B||-----------------------|
G||-7------10---7-----12--|
D||-----------------------|
A||-----------------------|
D||-----------------------|



Chorus
Guitar 1/2:
E||--------------------------------------------|------------------------------------------|
B||--------------------------------------------|------------------------------------------|
G||--------------------------------------------|------------------------------------------|
D||-0000-0-3-5/7-5-3---10101010---10-10---x-7--|-0000-0-3-5/7-5-3---10101010--x10--7--12--|
A||-0000-0-3-5/7-5-3---10101010---10-10---x-7--|-0000-0-3-5/7-5-3---10101010--x10--7--12--|
D||-0000-0-3-5/7-5-3---10101010---10-10---x-7--|-0000-0-3-5/7-5-3---10101010--x10--7--12--|


E||-----------------------------------------|-------------------------------------------|
B||-----------------------------------------|-------------------------------------------|
G||-----------------------------------------|-------------------------------------------|
D||-0000-0-3---x-10---10101010--1010---x-7--|-0000-0-3-5/7-5-3---10101010--x10--7--12---|
A||-0000-0-3---x-10---10101010--1010---x-7--|-0000-0-3-5/7-5-3---10101010--x10--7--12---|
D||-0000-0-3---x-10---10101010--1010---x-7--|-0000-0-3-5/7-5-3---10101010--x10--7--12---|



Pre-Verse
Guitar 1:
E||-----------------|
B||-x-x--xx--x-6-6--|
G||-x-x--xx--x-7-7--| x2
D||-----------------|
A||-----------------|
D||-----------------|



Verse
Guitar 1:
E||---------------|
B||---------------|
G||---------------|
D||--8-7-5-3-5-7--|
A||--8-7-5-3-5-7--|
D||--8-7-5-3-5-7--|


E||------------------------------|
B||------------------------------|
G||------------------------------|
D||--8-7-5-3-5-7--8-----/10--5---|
A||--8-7-5-3-5-7--8-----/10--5---|
D||--8-7-5-3-5-7--8-----/10--5---|


Guitar 2:
E||------------------------|
B||------------------------|
G||-7----7--10---7-----12--|
D||------------------------|
A||------------------------|
D||------------------------|



Chorus
Guitar 1/2:
E||-------------------------------------------|------------------------------------------|
B||-------------------------------------------|------------------------------------------|
G||-------------------------------------------|------------------------------------------|
D||-0000-0-3-5/7-5-3---10101010---x-10---x-7--|-0000-0-3-5/7-5-3---10101010--x10--7--12--|
A||-0000-0-3-5/7-5-3---10101010---x-10---x-7--|-0000-0-3-5/7-5-3---10101010--x10--7--12--|
D||-0000-0-3-5/7-5-3---10101010---x-10---x-7--|-0000-0-3-5/7-5-3---10101010--x10--7--12--|


E||-----------------------------------------|-------------------------------------------|
B||-----------------------------------------|-------------------------------------------|
G||-----------------------------------------|-------------------------------------------|
D||-0000-0-3---x-10---10101010--1010---x-7--|-0000-0-3-5/7-5-3---10101010--x10--7--12---|
A||-0000-0-3---x-10---10101010--1010---x-7--|-0000-0-3-5/7-5-3---10101010--x10--7--12---|
D||-0000-0-3---x-10---10101010--1010---x-7--|-0000-0-3-5/7-5-3---10101010--x10--7--12---|



Solo
Guitar 2:
E||--------------------|
B||--------------------|
G||--------------------|
D||-0-----8-7-5-3-5-7--|
A||-0-----8-7-5-3-5-7--|
D||-0-----8-7-5-3-5-7--|


Guitar 1:
E||-------------------------17b18-17-15-17---------17b18-17-15-17---15-----------|
B||-/15~------------13/15-------------------13/15----------------------18-17-18--|
G||--------17b19~----------------------------------------------------------------|
D||------------------------------------------------------------------------------|
A||------------------------------------------------------------------------------|
D||------------------------------------------------------------------------------|


E||------------------17b18-17-15-17--------17b18-17-15-17-15----15------------|
B||-b17--r15--13/15------------------13/15-------------------18----18-17-18---|
G||---------------------------------------------------------------------------|
D||---------------------------------------------------------------------------|
A||---------------------------------------------------------------------------|
D||---------------------------------------------------------------------------|


E||-------------------------------------------|
B||------------------------------13----13-15--|
G||--/15-14-12----12-14-15-14-15----15--------|
D||------------15-----------------------------|
A||-------------------------------------------|
D||-------------------------------------------|


Guitar 2:
E||-------------------------------------------------------------|
B||-------------------------------------------------------------|
G||-------------------------------------------------------------| x2
D||-0--12--7-----0-10-7-0-12---7-----0-10--7----0-8-7-5-3-5-7---|
A||-0--12--7-----0-10-7-0-12---7-----0-10--7----0-8-7-5-3-5-7---|
D||-0--12--7-----0-10-7-0-12---7-----0-10--7----0-8-7-5-3-5-7---|


E||---------------|-------------------|
B||---------------|-------------------|
G||---------------|-------------------|
D||--8-7-5-3-5-7--|--8-7-5-3-5-7--0~--|
A||--8-7-5-3-5-7--|--8-7-5-3-5-7--0~--|
D||--8-7-5-3-5-7--|--8-7-5-3-5-7--0~--|



Chorus/Outro
Guitar 2:
E||--------------------------------------------|------------------------------------------|
B||--------------------------------------------|------------------------------------------|
G||--------------------------------------------|------------------------------------------|
D||-0000-0-3-5/7-5-3---10101010---10-10---x-7--|-0000-0-3-5/7-5-3---10101010--x10--7--12--|
A||-0000-0-3-5/7-5-3---10101010---10-10---x-7--|-0000-0-3-5/7-5-3---10101010--x10--7--12--|
D||-0000-0-3-5/7-5-3---10101010---10-10---x-7--|-0000-0-3-5/7-5-3---10101010--x10--7--12--|


E||-----------------------------------------|-------------------------------------------|
B||-----------------------------------------|-------------------------------------------|
G||-----------------------------------------|-------------------------------------------| x2
D||-0000-0-3---x-10---10101010--1010---x-7--|-0000-0-3-5/7-5-3---10101010--x10--7--12---|
A||-0000-0-3---x-10---10101010--1010---x-7--|-0000-0-3-5/7-5-3---10101010--x10--7--12---|
D||-0000-0-3---x-10---10101010--1010---x-7--|-0000-0-3-5/7-5-3---10101010--x10--7--12---|


E||-----|
B||-----|
G||-----|
D||--0--|
A||--0--|
E||--0--|


Guitar 1:
E||-------17b18r17-17-15-17----------------|--17b18r17-17-15-17---------15-----|
B||-13/15---------------------17-18-13-----|----------------------17-18----18--|
G||------------------------------------14--|-----------------------------------|
D||----------------------------------------|-----------------------------------|
A||----------------------------------------|-----------------------------------|
D||----------------------------------------|-----------------------------------|


E||--17b18r17-17-15-17----------------|--17b18r17-17-15-17---------15---------|
B||----------------------17-18-13-----|----------------------17-18----18--15--|
G||-------------------------------14--|---------------------------------------|
D||-----------------------------------|---------------------------------------|
A||-----------------------------------|---------------------------------------|
D||-----------------------------------|---------------------------------------|




Tablature Legend
----------------
 h   hammer-on
 p   pull-off
 b   bend
 pb  pre-bend
 r   release bend
 ~   hold / vibrato
 .   palm mute
 /   slide up
 \   slide down
 *   pinch harmonic
 '   natural harmonic
 x   mute note
 T   tap
Suggest correction
comments
print report bad tab
5 comments total. Showing first comments.
+1 reply
bhbass 30 wrote on September 8 2009, 06:55 pm

nice tab, dude!!! theres just 1 tiiiny problem: in the intro (guitar 1)i think it should be like this (im playing it on acoustic guitar so thats maybe y it sounds better for me)
e:-----------------------------------
B:-----------------------------------
G:-----------------------------------
D:-0-00-3-5/7-5-3---0-00--1010-x7----
A:-0-00-3-5/7-5-3---0-00--1010-x7----
E:-0-00-3-5/7-5-3---0-00--1010-x7----

+1 reply
dark_rider92 20 wrote on September 10 2009, 12:15 pm

great tab! you're missing a few minor parts, which can be found on version 2, but everything you have on here is perfect!

-1 reply
redsox9117 10 wrote on April 12 2010, 04:26 pm

WHY DID YOU HAVE TO UPDATE IT?!?!?!?!?!?! I think it was WAY better before

guest
You may want to rate the tab now too:
select rating
Wanna post a correction for this tab? Suggest correction