Oops, an error
Loading. Please wait.
We have an official Break tab made by UG professional guitarists. Check out the tab »
×
2,150 views 6 this week
1 commentread comment
1 2 3 4 5
1 last vote to show rating
add to favorites
×
Save as Personal and add changes to this tab that will be seen only by you. Learn more ›
×
You can save this tab as Personal to edit and correct it or add notes. All changes will be seen only by you. Learn more »
launch autoscroll
font size
0
reset
how to read this tab
guitar tuner
edit
Autoscroll
slow
fast
+/-
esc
set tempo
stop
Three Days Grace- Break
Album- Life Starts Now


Intro~

E|------------------------------------------------------------------------|
B|--15v(Bend)-------------------------------------------------------------|
G|------------------------------------------------------------------------|
B|------------------------------------------------------------------------|
G|------------------------------------------------------------------------|
D|------------------------------------------------------------------------|

E|------------------------------------------------------------------------|
B|------------------------------------------------------------------------|
G|------------------------------------------------------------------------|
D|------------------------------------------------------------------------|
A|-0---00---3--5/6\5--3---------------------------------------------------|
D|-0---00---3--5/6\5--3---------------------------------------------------|

E|------------------------------------------------------------------------|
B|------------------------------------------------------------------------|
G|------------------------------------------------------------------------|
D|------------------------------------------------------------------------|
A|10-10-10-10-7-----------------------------------------------------------|
D|10-10-10-10-7-----------------------------------------------------------|

E|------------------------------------------------------------------------|
B|------------------------------------------------------------------------|
G|------------------------------------------------------------------------|
D|------------------------------------------------------------------------|
A|-0---00---3--5/6\5--3---------------------------------------------------|
D|-0---00---3--5/6\5--3---------------------------------------------------|

E|------------------------------------------------------------------------|
B|------------------------------------------------------------------------|
G|------------------------------------------------------------------------|
D|------------------------------------------------------------------------|
A|10-10-10--10-7--12------------------------------------------------------|
D|10-10-10--10-7--12------------------------------------------------------|


E|------------------------------------------------------------------------|
B|------------------------------------------------------------------------|
G|------------------------------------------------------------------------|
D|--8-7-5-3-5-7-------8-7-5-3-5-7-----------------------------------------|
A|--8-7-5-3-5-7-------8-7-5-3-5-7-----------------------------------------|
D|--8-7-5-3-5-7-------8-7-5-3-5-7-----------------------------------------|


Pre-Chorus~

E|------------------------------------------------------------------------|
B|------------------------------------------------------------------------|
G|-10---10---10--12--7-7---12-12-12-----/--------*SLIDE DOWN*-------------|
D|-8----8-----8--10--5-5----X--X--X-----/---------------------------------|
A|-8----8-----8--10--5-5---10-10-10-----/---------------------------------|
D|-8----8-----8--10--5-5----------------/---------------------------------|


Chorus~

E|------------------------------------------------------------------------|
B|------------------------------------------------------------------------|
G|------------------------------------------------------------------------|
D|------------------------------------------------------------------------|
A|-0---00---3--5/6\5--3---------------------------------------------------|
D|-0---00---3--5/6\5--3---------------------------------------------------|

E|------------------------------------------------------------------------|
B|------------------------------------------------------------------------|
G|------------------------------------------------------------------------|
D|------------------------------------------------------------------------|
A|10-10-10-10-7-----------------------------------------------------------|
D|10-10-10-10-7-----------------------------------------------------------|

E|------------------------------------------------------------------------|
B|------------------------------------------------------------------------|
G|------------------------------------------------------------------------|
D|------------------------------------------------------------------------|
A|-0---00---3--5/6\5--3---------------------------------------------------|
D|-0---00---3--5/6\5--3---------------------------------------------------|


E|------------------------------------------------------------------------|
B|------------------------------------------------------------------------|
G|------------------------------------------------------------------------|
D|------------------------------------------------------------------------|
A|10-10-10--10-7--12------------------------------------------------------|
D|10-10-10--10-7--12------------------------------------------------------|

E|------------------------------------------------------------------------|
B|------------------------------------------------------------------------|
G|-----------------5------------------------------------------------------|
D|-----------------5------------------------------------------------------|
A|-0---00---3------7------10-10-10--10-7----------------------------------|
D|-0---00---3-------------10-10-10--10-7----------------------------------|

E|------------------------------------------------------------------------|
B|------------------------------------------------------------------------|
G|------------------------------------------------------------------------|
D|------------------------------------------------------------------------|
A|-0---00---3--5/6\5--3---------------------------------------------------|
D|-0---00---3--5/6\5--3---------------------------------------------------|


E|------------------------------------------------------------------------|
B|------------------------------------------------------------------------|
G|------------------------------------------------------------------------|
D|------------------------------------------------------------------------|
A|10-10-10--10-7--12------------------------------------------------------|
D|10-10-10--10-7--12------------------------------------------------------|

E|------------------------------------------------------------------------|
B|--------------6--5------------------------------------------------------|
G|--------------7--7------------------------------------------------------|
B|------------------------------------------------------------------------|
G|------------------------------------------------------------------------|
D|--0--00-000-------------------------------------------------------------|

E|------------------------------------------------------------------------|
B|--------------6--5------------------------------------------------------|
G|--------------7--7------------------------------------------------------|
B|------------------------------------------------------------------------|
G|------------------------------------------------------------------------|
D|--0--00-000-------------------------------------------------------------|


E|------------------------------------------------------------------------|
B|------------------------------------------------------------------------|
G|------------------------------------------------------------------------|
D|--8-7-5-3-5-7-------8-7-5-3-5-7-----------------------------------------|
A|--8-7-5-3-5-7-------8-7-5-3-5-7-----------------------------------------|
D|--8-7-5-3-5-7-------8-7-5-3-5-7-----------------------------------------|

E|------------------------------------------------------------------------|
B|------------------------------------------------------------------------|
G|-10---10---10--12--7-7---12-12-12-----/--------*SLIDE DOWN*-------------|
D|-8----8-----8--10--5-5----X--X--X-----/---------------------------------|
A|-8----8-----8--10--5-5---10-10-10-----/---------------------------------|
D|-8----8-----8--10--5-5----------------/---------------------------------|

E|------------------------------------------------------------------------|
B|------------------------------------------------------------------------|
G|------------------------------------------------------------------------|
D|------------------------------------------------------------------------|
A|-0---00---3--5/6\5--3---------------------------------------------------|
D|-0---00---3--5/6\5--3---------------------------------------------------|

E|------------------------------------------------------------------------|
B|------------------------------------------------------------------------|
G|------------------------------------------------------------------------|
D|------------------------------------------------------------------------|
A|10-10-10-10-7-----------------------------------------------------------|
D|10-10-10-10-7-----------------------------------------------------------|


E|------------------------------------------------------------------------|
B|------------------------------------------------------------------------|
G|------------------------------------------------------------------------|
D|------------------------------------------------------------------------|
A|-0---00---3--5/6\5--3---------------------------------------------------|
D|-0---00---3--5/6\5--3---------------------------------------------------|

E|------------------------------------------------------------------------|
B|------------------------------------------------------------------------|
G|------------------------------------------------------------------------|
D|------------------------------------------------------------------------|
A|10-10-10--10-7--12------------------------------------------------------|
D|10-10-10--10-7--12------------------------------------------------------|

E|------------------------------------------------------------------------|
B|------------------------------------------------------------------------|
G|-----------------5------------------------------------------------------|
D|-----------------5------------------------------------------------------|
A|-0---00---3------7------10-10-10--10-7----------------------------------|
D|-0---00---3-------------10-10-10--10-7----------------------------------|


E|------------------------------------------------------------------------|
B|------------------------------------------------------------------------|
G|------------------------------------------------------------------------|
D|------------------------------------------------------------------------|
A|-0---00---3--5/6\5--3---------------------------------------------------|
D|-0---00---3--5/6\5--3---------------------------------------------------|


E|------------------------------------------------------------------------|
B|------------------------------------------------------------------------|
G|------------------------------------------------------------------------|
D|------------------------------------------------------------------------|
A|10-10-10--10-7--12------------------------------------------------------|
D|10-10-10--10-7--12------------------------------------------------------|

SOLO TIME!  Perfected.

E|------------------------------------------------------------------------|
B|------------------------------------------------------------------------|
G|------------------------------------------------------------------------|
D|--8-7-5-3-5-7-----------------------------------------------------------|
A|--8-7-5-3-5-7-----------------------------------------------------------|
D|--8-7-5-3-5-7-----------------------------------------------------------|


           v v v v RAKE v v v              v v v v RAKE v v v

E|--------15-17-18-17-15-17----15-17-18-17-15-17--15-13-12-13-------------|
B|--15-15-----------------------------------------------------------------|
G|------------------------------------------------------------------------|
B|------------------------------------------------------------------------|
G|------------------------------------------------------------------------|
D|------------------------------------------------------------------------|
           v v v v RAKE v v v v             v v v v RAKE v v v v
E|-----------15-17-18-17-15-17----15-17-18-17-15-17--15-13-15-13-12-13----|
B|--15v--15---------------------------------------------------------------|
G|------------------------------------------------------------------------|
B|------------------------------------------------------------------------|
G|------------------------------------------------------------------------|
D|------------------------------------------------------------------------|

E|------------------------------------------------------------------------|
B|-------------------------------13----13--15-----------------------------|
G|---15-14-12-----12-14-15-14-15----15------------------------------------|
B|-------------15---------------------------------------------------------|
G|------------------------------------------------------------------------|
D|------------------------------------------------------------------------|

With Drum Beats following, you can add a little effect by:

E|------------------------------------------------------------------------|
B|------------------------------------------------------------------------|
G|------------------------------------------------------------------------|
B|-x--x--x--x-------------------------------------------------------------|
G|-x--x--x--x-------------------------------------------------------------|
D|-x--x--x--x-------------------------------------------------------------|

E|------------------------------------------------------------------------|
B|------------------------------------------------------------------------|
G|------------------------------------------------------------------------|
D|------------------------------------------------------------------------|
A|-0---00---3--5/6\5--3---------------------------------------------------|
D|-0---00---3--5/6\5--3---------------------------------------------------|


E|------------------------------------------------------------------------|
B|------------------------------------------------------------------------|
G|------------------------------------------------------------------------|
D|------------------------------------------------------------------------|
A|10-10-10-10-7-----------------------------------------------------------|
D|10-10-10-10-7-----------------------------------------------------------|

E|------------------------------------------------------------------------|
B|------------------------------------------------------------------------|
G|------------------------------------------------------------------------|
D|------------------------------------------------------------------------|
A|-0---00---3--5/6\5--3---------------------------------------------------|
D|-0---00---3--5/6\5--3---------------------------------------------------|

E|------------------------------------------------------------------------|
B|------------------------------------------------------------------------|
G|------------------------------------------------------------------------|
D|------------------------------------------------------------------------|
A|10-10-10--10-7--12------------------------------------------------------|
D|10-10-10--10-7--12------------------------------------------------------|

E|------------------------------------------------------------------------|
B|------------------------------------------------------------------------|
G|-----------------5------------------------------------------------------|
D|-----------------5------------------------------------------------------|
A|-0---00---3------7------10-10-10--10-7----------------------------------|
D|-0---00---3-------------10-10-10--10-7----------------------------------|

E|------------------------------------------------------------------------|
B|------------------------------------------------------------------------|
G|------------------------------------------------------------------------|
D|------------------------------------------------------------------------|
A|-0---00---3--5/6\5--3---------------------------------------------------|
D|-0---00---3--5/6\5--3---------------------------------------------------|

E|------------------------------------------------------------------------|
B|------------------------------------------------------------------------|
G|------------------------------------------------------------------------|
D|------------------------------------------------------------------------|
A|10-10-10--10-7--12------------------------------------------------------|
D|10-10-10--10-7--12------------------------------------------------------|


Ending~

E|--15-17-18-17-15-17-18-17-15---------------Repeat 3 times---------------|
B|------------------------------------------------------------------------|
G|------------------------------------------------------------------------|
B|------------------------------------------------------------------------|
G|------------------------------------------------------------------------|
D|------------------------------------------------------------------------|

E|---15-17-18-17-15-17-18-17-15-13-12-10--------Let Ring------------------|
B|------------------------------------------------------------------------|
G|------------------------------------------------------------------------|
B|------------------------------------------------------------------------|
G|------------------------------------------------------------------------|
D|------------------------------------------------------------------------|

Entire Song tabbed by RockFan120

I hope you've enjoyed playing it.  Message me if you think it needs an improvement.

            
            
Suggest correction
Creating personal tab
Creating personal tab
You can edit any tab online and save it as your Personal.

You can edit, replace or remove any tab part or add personal notes – all changes will be seen only by you.

Personal tabs can be accessed anytime from any device, even offline.
Learn more »
Give kudos to tab author, rate the tab!
1 2 3 4 5
comments
print report bad tab
1 comment total.
0 reply
th_brck_rcks 456 Mar 24, 2010 01:30 PM

u did pretty good but u made a few mistakes but its ok ull get it sometime :)

guest
Wanna post a correction for this tab? Suggest correction