Oops, an error
Loading. Please wait.

Bully Bass Tab

version 1
version 1

Whole song

Interactive

2,493 views 3 this week
no commentswrite comment
1 2 3 4 5
excellent!
x 3
add to favorites
launch autoscroll
font size
0
reset
guitar tuner
Tab Pro tools
  • play this tab
  • loop segment
  • change instrument
  • show fretboard
  • metronome
×
Best way to learn
"Bully"
Autoscroll
slow
fast
+/-
esc
set tempo
stop
Contributor
Tuning
C G C F A D
-------------------------------------------------------------------------------
			     BULLY - Three Days Grace
-------------------------------------------------------------------------------

Tabbed By : mariewong

Tuning: Drop C





Intro:

F|------------------------------------------------------------------------|
C|------------------------------------------------------------------------|
G|------------------------------------------------------------------------|
C|-4-3-3-0-0-0-0-0-0-4-3-3-0-0-0-0-4\-4-3-3-0-0-0-0-0-0-4-3-3-0-0-0-0-4\--|



Verse:
He wakes up haunted
With voices in his head
Nobody knows it but today he won't go unnoticed
He can't forget, can't forgive for what they said
He's never been so hurt
But today the screaming is over

F|-----------------------------------------------------------------------|
C|-----------------------------------------------------------------------|
G|-------------------------------------------------------3-3-33----------|
C|-4-3-3-0-0-0-0-000-4-3-3-0-0-0-0-4\-4-3-3-0-0-0-0-000---------5-5-5-5--|

F|-----------------------------------------------------------------------|
C|-----------------------------------------------------------------------|
G|-------------------------------------------------------3-3-33----------|
C|-4-3-3-0-0-0-0-000-4-3-3-0-0-0-0-4\-4-3-3-0-0-0-0-000---------5-5-5-5--|



Chorus:
Blame the family
Blame the bully
Blame it all on me
Maybe he needed to be wanted
Blame the family
Blame the bully
Maybe he needed to be wanted

F|--------------------------------------------------------------------------|
C|--------------------------------------------------------------------------|
G|--------------------------------------------------------------------------|
C|-3-5-6-5-3-1-3-1-0-0-0-0-3-5-6-5-3-1-3-1-0-0-0-0-3-5-6-5-3-1-3-1-0-0-0-0--|

F|----------------------------------------------------------------------------|
C|----------------------------------------------------------------------------|
G|-3-3-33------------------------------------------------------3-3-33---------|
C|--------5555-3-5-6-5-3-1-3-1-0-0-0-0-3-5-6-5-3-1-3-1-0-0-0-0--------5-5-5-5-|



Pre-verse:

F|-------------------------------------|
C|-------------------------------------|
G|-------------------------------------|
C|-4-3-3-0-0-0-0-0-0-4-3-3-0-0-0-0-4\--|



Verse:
She takes the long way home
Fighting her emotions
She's a loner but today she won't go unnoticed
If she can remember
When she loses her temper
Nobody knows her but today the silence is over

F|-----------------------------------------------------------------------|
C|-----------------------------------------------------------------------|
G|-------------------------------------------------------3-3-33----------|
C|-4-3-3-0-0-0-0-000-4-3-3-0-0-0-0-4\-4-3-3-0-0-0-0-000---------5-5-5-5--|

F|-----------------------------------------------------------------------|
C|-----------------------------------------------------------------------|
G|-------------------------------------------------------3-3-33----------|
C|-4-3-3-0-0-0-0-000-4-3-3-0-0-0-0-4\-4-3-3-0-0-0-0-000---------5-5-5-5--|



Chorus:
Blame the family
Blame the bully
Blame it all on me
Maybe she needed to be wanted
Blame the family
Blame the bully
Blame it all on me
Maybe she needed to be wanted

F|--------------------------------------------------------------------------|
C|--------------------------------------------------------------------------|
G|--------------------------------------------------------------------------|
C|-3-5-6-5-3-1-3-1-0-0-0-0-3-5-6-5-3-1-3-1-0-0-0-0-3-5-6-5-3-1-3-1-0-0-0-0--|

F|--------------|
C|--------------|
G|-3-3-33-------|
C|--------5555--|

F|--------------------------------------------------------------------------|
C|--------------------------------------------------------------------------|
G|--------------------------------------------------------------------------|
C|-3-5-6-5-3-1-3-1-0-0-0-0-3-5-6-5-3-1-3-1-0-0-0-0-3-5-6-5-3-1-3-1-0-0-0-0--|

F|--------------|
C|--------------|
G|-3-3-33-------|
C|--------5555--|



Bridge:
Blame the family
Blame the bully
Blame it all on me
Maybe they needed

F|------------------------------|
C|------------------------------|
G|------------------------------|
C|-0~--0~--0~--0-0-0-0-0-0-0-0--|

F|--------------------------|        |----------|
C|--------------------------|        |----------|
G|--------------------------|  [x9]  |-3-3-3-3--|
C|-0-0-5-3-0-1-0-0-3-1-0-1--|        |----------|



Chorus:
Blame the family
Blame the bully
Blame it all on me
Maybe they needed to be wanted
Blame the family
Blame the bully
Blame it all on me
Maybe they needed to be wanted

F|--------------------------------------------------------------------------|
C|--------------------------------------------------------------------------|
G|--------------------------------------------------------------------------|
C|-3-5-6-5-3-1-3-1-0-0-0-0-3-5-6-5-3-1-3-1-0-0-0-0-3-5-6-5-3-1-3-1-0-0-0-0--|

F|--------------|
C|--------------|
G|-3-3-33-------|
C|--------5555--|

F|--------------------------------------------------------------------------|
C|--------------------------------------------------------------------------|
G|--------------------------------------------------------------------------|
C|-3-5-6-5-3-1-3-1-0-0-0-0-3-5-6-5-3-1-3-1-0-0-0-0-3-5-6-5-3-1-3-1-0-0-0-0--|

F|--------------|
C|--------------|
G|-3-3-33-------|
C|--------5555--|



Outro:
Wanted

F|-------------------------------------|
C|-------------------------------------|
G|-------------------------------------|
C|-4-3-3-0-0-0-0-0-0-4-3-3-0-0-0-0-4\--|








| /  slide up
| \  slide down
| h  hammer-on
| p  pull-off
| ~  vibrato
| +  harmonic
| x  Mute note
===============================================================================
comments
We did not receive enough feedback on this tab! Please rate:
print report bad tab
1 2 3 4 5
I want to post or [tab]
guest
You may want to rate the tab now too:
select rating
Please do not post tabs as comments. Select "correction" instead!