Oops, an error
Loading. Please wait.

Burn Bass Tab

version 2
version 2

Whole song

Interactive

884 views 6 this week
1 commentread comment
1 2 3 4 5
worth learning
x 1
add to favorites
launch autoscroll
font size
0
reset
guitar tuner
Tab Pro tools
  • play this tab
  • loop segment
  • change instrument
  • show fretboard
  • metronome
Autoscroll
slow
fast
+/-
esc
set tempo
stop
Contributor
-------------------------------------------------------------------------------
			     BURN - Three Days Grace
-------------------------------------------------------------------------------

Tabbed By : Kevin

Tuning:Standard

intro:
G|--------------------------------------------|   |--------------------------|
D|--------------------------------------------|x3 |--------------------------|
A|--------------------------------------------|   |--------------------------|
D|-0-10-12-0-12-10-0-10-12-0-12-10-0-10-12-13-|   |-0-10-12-0-12-10-0-10-12\-|

G|--------------------------------------------|  
D|--------------------------------------------|x4 
A|--------------------------------------------|   
D|-0-10-12---12-10-0-10-12---12-10-0-10-12-13-|  

G|-----------------------------------------|   |-----------------------|
D|-----------------------------------------|x3 |-----------------------| 
A|-----------------------------------------|   |-----------------------|
D|-0---0---12-10---0-12---12-10---10-12-13-|   |-0---0---12-10---0-12\-|

verse:
G|--------------------------------------------| 
D|--------------------------------------------|x8
A|--------------------------------------------|   
D|-0-10-12-0-12-10-0-10-12-0-12-10-0-10-12-13-|   

pre-chorus:
G|-------------------------------------------------|
D|-------------------------------------------------|
A|-------------------------0--0--0--0--1-0---0---3-|
D|-3--3--3--3--3--3--3--3--------------------------|

chorus:
G|--------------------------------------------------------------------|
D|--------------------------------------------------------------------|x2
A|---------0--0---3---3-----------------------0--0--0--0--1-0---0---3-|
D|-0---0------------------085-5-5-053---031---------------------------|


verse:
G|--------------------------------------------| 
D|--------------------------------------------|
A|--------------------------------------------|   
D|-0-10-12-0-12-10-0-10-12-0-12-10-0-10-12-13-|   

rest

verse:
G|--------------------------------------------| 
D|--------------------------------------------|x6
A|--------------------------------------------|   
D|-0-10-12-0-12-10-0-10-12-0-12-10-0-10-12-13-|   

pre-chorus:
G|-------------------------------------------------|
D|-------------------------------------------------|
A|-------------------------0--0--0--0--1-0---0---3-|
D|-3--3--3--3--3--3--3--3--------------------------|

chorus:
G|--------------------------------------------------------------------|
D|--------------------------------------------------------------------|x2
A|---------0--0---3---3-----------------------0--0--0--0--1-0---0---3-|
D|-0---0------------------085-5-5-053---031---------------------------|

break:
G|--------------------------------------------| 
D|--------------------------------------------|x2
A|--------------------------------------------|   
D|-0-10-12-0-12-10-0-10-12-0-12-10-0-10-12-13-|   

G|--------------------------------------------|  
D|--------------------------------------------|x2
A|--------------------------------------------|   
D|-0-10-12---12-10-0-10-12---12-10-0-10-12-13-|    

G|---------------------------------------------------------------------------------------|  
D|---------------------------------------------------------------------------------------|
A|---------------------------------------------------------------------------------------|   
D|-rest-0--12-10-0-10-12---12-10-0-10-12-13---0-10-12-0-12-10-0-10-12-0-12-10-0-10-12-13-|
  
G|---------------------------------------------------------------------------------------|  
D|---------------------------------------------------------------------------------------| 
A|---------------------------------------------------------------------------------------|   
D|-0-10-12---12-10-0-10-12---12-10-0-10-12-13-0-10-12-0-12-10-0-10-12-0-12-10-0-10-12-13-|  

pre-chorus:
G|---------------------------------------------------------------------------------------------|
D|---------------------------------------------------------------------------------------------|
A|-------------------------------------------------------------------------0--0--0--0--0-------|
D|-3--3--3--3--3--3--3--3--5--5--5--5--5--5--5--5--3--3--3--3--3--3--3--3----------------------|

chorus:
G|--------------------------------------------------------------------|
D|--------------------------------------------------------------------|x2
A|---------0--0---3---3-----------------------0--0--0--0--1-0---0---3-|
D|-0---0------------------085-5-5-053---031---------------------------|

outro:
G|--------------------------------------------| 
D|--------------------------------------------|x2
A|--------------------------------------------|   
D|-0-10-12-0-12-10-0-10-12-0-12-10-0-10-12-13-|    

G|--------------------------------------------|  
D|--------------------------------------------|x2 
A|--------------------------------------------|   
D|-0-10-12---12-10-0-10-12---12-10-0-10-12-13-|
  
G|------------------------------------------------------------------------------------|  
D|------------------------------------------------------------------------------------|
A|------------------------------------------------------------------------------------|   
D|-rest-0--12-10-0-10-12---12-10-0-10-12-13-0-10-12---12-10-0-10-12---12-10-0-10-12-13-|  

G|----------------------------------------|
D|----------------------------------------|x4
A|----------------------------------------|
D|-0--0--12-10-0-10-12---12-10-0-10-12-13-|

G|----------------------------------------|
D|----------------------------------------|x4
A|----------------------------------------|
D|-0-0-0--12-10---0-12---12-10---10-12-13-|

| /  slide up
| \  slide down
| h  hammer-on
| p  pull-off
| ~  vibrato
| +  harmonic
| x  Mute note
===============================================================================
comments
We did not receive enough feedback on this tab! Please rate:
print report bad tab
1 2 3 4 5
1 comment total.
0 reply
brmbasstrials wrote on November 8 2013, 12:17 pm

haha!, tuning standard(DADG) thats drop d

I want to post or [tab]
guest
You may want to rate the tab now too:
select rating
Please do not post tabs as comments. Select "correction" instead!