Oops, an error
Loading. Please wait.

Chalk Outline Tab

version 1
version 1

Whole song

Interactive

43,792 views 102 this week
2 commentsread comments
1 2 3 4 5
excellent!
x 18
add to favorites
launch autoscroll
font size
0
reset
how to read this tab
guitar tuner
Autoscroll
slow
fast
+/-
esc
set tempo
stop
Help us to improve Ultimate-Guitar.com Take our survey!
×
Contributor
Difficulty
Tuning
intermediate
C G C F A D
Tabbed by: Joshua Garcia (joshuag523@aol.com)

Tabs for the song: Chalk Outline by Three Days Grace
Please rate and let me know if you have any corrections. Thank you.


Tuning: Drop C (C G C F A D)


Intro
Guitar 1/2:
D||----------------------------------|-----------------------------|
A||--14------------------------14----|-----------------------14----|
F||--17b~----------------------17b~--|-----------------------17b~--|
C||---------4~---x-x-x-x-------------|--4~---0-x-x-x---x-x-x-------|
G||---------4~---x-x-x-x-------------|--4~---0-x-x-x---x-x-x-------|
C||---------4~---x-x-x-x-------------|--4~-----x-x-x---x-x-x-------|


D||-------------------------------|-----------------------------|
A||-------------------------------|-----------------------14----|
F||-------------------------------|-----------------------17b~--|
C||-----4~---x-x-x-x-----x-x---x--|--4~---0-x-x-x---x-x-x-------|
G||-----4~---x-x-x-x-----x-x---x--|--4~---0-x-x-x---x-x-x-------|
C||--44-4~---x-x-x-x-----x-x---x--|--4~-----x-x-x---x-x-x-------|
     ..


Verse
Guitar 1/2:
D||---------|---------|---------|-------------------------------|
A||---------|---------|---------|-------------------------14----|
F||---------|---------|---------|-------------------------17b~--|
C||---44~---|---44~---|---00~---|---44~---0-x-x-x---x-x-x-------|
G||---44~---|---44~---|---00~---|---44~---0-x-x-x---x-x-x-------|
C||---44~---|---44~---|---00~---|---44~-----x-x-x---x-x-x-------|


D||---------|---------------------|---------|
A||---------|---------------------|---------|
F||---------|---------------------|---44~---|
C||---44~---|---44~---x-x---00~---|---44~---|
G||---44~---|---44~---x-x---00~---|---22~---|
C||---44~---|---44~---x-x---00~---|---------|



Chorus
Guitar 1/2:
D||--------|--------|--------|--------|
A||--------|--------|--------|--------|
F||--------|--------|---2~---|---4~---|
C||---4~---|---0~---|---2~---|---4~---|
G||---4~---|---0~---|---0~---|---2~---|
C||---4~---|---0~---|--------|--------|


D||--------|--------|--------|--------|
A||--------|--------|--------|--------|
F||--------|--------|---2~---|---4~---|
C||---0~---|---4~---|---2~---|---4~---|
G||---0~---|---4~---|---0~---|---2~---|
C||---0~---|---4~---|--------|--------|


D||------------|
A||------------|
F||--6-4-2--4--|
C||--6-4-2--4--|
G||--4-2-0--2--|
C||------------|



Pre-Verse
Guitar 1/2:
D||---------------------------|---------------------------|
A||---------------------14----|---------------------------|
F||---------------------17b~--|---------------------------|
C||--4~---x-x-x-x-------------|-----4~---0-x-x-x---x-x-x--|
G||--4~---x-x-x-x-------------|-----4~---0-x-x-x---x-x-x--|
C||--4~---x-x-x-x-------------|--44-4~-----x-x-x---x-x-x--|
                                 ..



Verse
Guitar 1/2:
D||---------|---------|---------|-------------------|
A||---------|---------|---------|-------------------|
F||---------|---------|---------|-------------------|
C||---44~---|---44~---|---00~---|---44~---0-x-x-x---|
G||---44~---|---44~---|---00~---|---44~---0-x-x-x---|
C||---44~---|---44~---|---00~---|---44~-----x-x-x---|


D||---------|---------------------|---------|
A||---------|---------------------|---------|
F||---------|---------------------|---44~---|
C||---44~---|---44~---x-x---00~---|---44~---|
G||---44~---|---44~---x-x---00~---|---22~---|
C||---44~---|---44~---x-x---00~---|---------|



Chorus
Guitar 1/2:
D||--------|--------|--------|--------|
A||--------|--------|--------|--------|
F||--------|--------|---2~---|---4~---|
C||---4~---|---0~---|---2~---|---4~---|
G||---4~---|---0~---|---0~---|---2~---|
C||---4~---|---0~---|--------|--------|


D||--------|--------|--------|--------|
A||--------|--------|--------|--------|
F||--------|--------|---2~---|---4~---|
C||---0~---|---4~---|---2~---|---4~---|
G||---0~---|---4~---|---0~---|---2~---|
C||---0~---|---4~---|--------|--------|


D||------------|---------|---------|------------|
A||------------|---------|---------|------------|
F||--6-4-2--4--|---------|---22~---|--6-4-2--4--|
C||--6-4-2--4--|---00~---|---22~---|--6-4-2--4--|
G||--4-2-0--2--|---00~---|---00~---|--4-2-0--2--|
C||------------|---00~---|---------|------------|



Bridge
Guitar 1:
D||------------------------------------------------------------------|
A||------------------------------------------------------------------|
F||------------------------------------------------------------------|
C||------4---4-2~-----2----2-0---------------------------------------| x2
G||-------------------------------4-----5---5-4~---2-2h4p2---0----0--|
C||--4-4---4--------4---4-------4---------4----------------4----4----|


Guitar 2:
D||---------------------------------------------------------------------------------------|
A||---------------------------------------------------------------------------------------|
F||--------14----14-13~------13----13-11------------11----11------------------------------|
C||--11-11----11----------11----11--------11-14--------11----14~---12h14p12----11--12-11--| x2
G||-------------------------------------------------------------------------14------------|
C||---------------------------------------------------------------------------------------|



Solo
Guitar 1:
D||---------------------------------------------------------------------------|
A||---------------------------------------------------------------------------|
F||-----------------------------------------------------------14-------14-16--|
C||-----------------------14-------14-16----14-16-18-14-16-18----16-18--------|
G||--12/14-16-17-14-16-17----16-17-------17-----------------------------------|
C||---------------------------------------------------------------------------|
     .  .  .  .  .  .  .

D||----------------------------------------------------------------------------------|
A||--------------------------------------------------------------------------15-19~--|
F||--------------------------------------------------------14-------14-16-18---------|
C||-----------14-------14-16----14-16-18----------14-16-18----16-18------------------|
G||--14-16-17----16-17-------17----------14-16-17------------------------------------|
C||----------------------------------------------------------------------------------|
     .  .  .

Guitar 2:
D||---------|---------|-------------------------------------------------|
A||---------|---------|-------------------------------------------------|
F||---77~---|---44~---|-------------------------------------------------|
C||---77~---|---44~---|-------------------------------------------------|
G||---55~---|---22~---|-------------------------------------------------|
C||---------|---------|--4-4-4-4-4-4-4-4-4-4-4-4-4-4-4-4-7-7-7-7-7-7-7--|
                         . . . . . . . . . . . . . . . . . . . . . . .



Chorus
Guitar 1/2:
D||-------|-------|--------|
A||-------|-------|--14----|
F||-------|--44~--|--17b~--|
C||--00~--|--44~--|--------|
G||--00~--|--22~--|--------|
C||--00~--|-------|--------|


D||--------|--------|--------|--------|
A||--------|--------|--------|--------|
F||--------|--------|---2~---|---4~---|
C||---0~---|---4~---|---2~---|---4~---|
G||---0~---|---4~---|---0~---|---2~---|
C||---0~---|---4~---|--------|--------|


D||------------|
A||------------|
F||--6-4-2--4--|
C||--6-4-2--4--|
G||--4-2-0--2--|
C||------------|



Outro
Guitar 1:
D||-------------------|
A||-------------------|
F||---------6-4-2--4--|
C||--4~-----6-4-2--4--| x3
G||--4~-----4-2-0--2--|
C||--4~---------------|


Guitar 2:
D||-------------------|
A||------------14-----|
F||------------17b~---|
C||--4~---------------| x2
G||--4~---------------|
C||--4~---------------|




Tablature Legend
----------------
 h   hammer-on
 p   pull-off
 b   bend
 pb  pre-bend
 r   release bend
 ~   hold / vibrato
 .   palm mute
 /   slide up
 \   slide down
 *   pinch harmonic
 '   natural harmonic
 x   mute note
 T   tap
comments
print report bad tab
2 comments total.
+3 reply
Dabeastvader 309 wrote on August 16 2012, 05:00 pm

Awesome 5* :D

+3 reply
A7XfoREVer79 16 wrote on September 18 2013, 07:26 am

Great tab. 5*s

I want to post or [tab]
guest
You may want to rate the tab now too:
select rating
Please do not post tabs as comments. Select "correction" instead!