Oops, an error
Loading. Please wait.

Chalk Outline Tab

version 2
version 2

Whole song

Interactive

12,468 views 12 this week
no commentswrite comment
1 2 3 4 5
excellent!
x 5
add to favorites
launch autoscroll
font size
0
reset
how to read this tab
guitar tuner
Autoscroll
slow
fast
+/-
esc
set tempo
stop
Help us to improve Ultimate-Guitar.com Take our survey!
×
Author
Difficulty
Tuning
intermediate
C G C F A D
Artist: Three Days Grace
Song: Chalk Outline
Tuning: Drop C
Tabbed By: shredforever

Intro
main guitar
d|--9----------------9-----------------------9------------------------------------------------9--|
A|-----------------------------------------------------------------------------------------------|
F|-----------------------------------------------------------------------------------------------|
C|------4--x-x-x-x-------4--3-x-x-x--x-x-x-------4-4-4--x-x-x-x---x-x---4-4--3-x-x-x--x-x-x------|
G|------4--x-x-x-x-------4--3-x-x-x--x-x-x-------4-4-4--x-x-x-x---x-x---4-4--3-x-x-x--x-x-x------|
C|------4--x-x-x-x-------4--3-x-x-x--x-x-x-------4-4-4--x-x-x-x---x-x---4-4--3-x-x-x--x-x-x------|
                            *                    . .                    .    *
Verse
main guitar
d|----------------------------------------------------------------------------------9---|
A|--------------------------------------------------------------------------------------|
F|-------11-9----9-------------11-9----9---------------7-7------------------------------|
C|--4-4--------9----9-11--4-4--------9----9-11--12-11--7-7---4-4---3-x-x-x--x-x-x-------|
G|--4-4-------------------4-4--------------------------5-5---4-4---3-x-x-x--x-x-x-------|
C|--4-4-------------------4-4--------------------------------4-4---3-x-x-x--x-x-x-------|
                                                                   *
d|---------------------------------------------------------------|
A|---------------------------------------------------------------|
F|-------11-9----9-----------11-9----9---------------7-7---------|
C|--4-4--------9----9-11--4--------9----9-11--12-11--7-7---9-9---|
G|--4-4-------------------4--------------------------5-5---9-9---|
C|--4-4-------------------4--------------------------------9-9---|

Chorus
main guitar
d|--------------------------------------------------------------------------------------------|
A|------------------------5-------------------------------------------------------------------|
F|--------------------------------------------------------------------------------------------|
C|--4---------------------0---------------------7-----------------------9-------------x-x-----|
G|--4---------------------0---------------------7-----------------------9-------------x-x-----|
C|--4---------------------0---------------------7-----------------------9-------------x-x-----|

second guitar
d|--------------------------------------------------------------------------------------------|
A|--------------------------------------------------------------------------------------------|
F|------------------------------------------------11-9----9-----------------------------------|
C|------------------------------------------------------9----9-11--12-11---7-9--7-9-------9---|
G|--------------------------------------------------------------------------------------9-----|
C|--------------------------------------------------------------------------------------------|
                                                                                        * *
main guitar
d|-----------------------4---------------------7------------------------9-----------------------|
A|--5-------------------------------------------------------------------------------------------|
F|----------------------------------------------------------------------------------------------|
C|--0--------------------4---------------------7------------------------9-----------------------|
G|--0--------------------4---------------------7------------------------9-----------------------|
C|--0--------------------4---------------------7------------------------9-----------11-9-7-9v---|

second guitar
d|--------------------------------------------------------------------------------------------|
A|--------------------------------------------------------------------------------------------|
F|------------------------------------------------11-9----9-----------------------------------|
C|------------------------------------------------------9----9-11--12-11---7-9--7-9-----------|
G|--------------------------------------------------------------------------------------------|
C|--------------------------------------------------------------------------------------------|

Break
main guitar
d|---------------9---------------------------|
A|-------------------------------------------|
F|-------------------------------------------|
C|--4--x-x-x-x-------4-4-4--3-x-x-x--x-x-x---|
G|--4--x-x-x-x-------4-4-4--3-x-x-x--x-x-x---|
C|--4--x-x-x-x-------4-4-4--3-x-x-x--x-x-x---|
                     . .    *
Verse 2 (mostly the same but slightly different than the first verse)
main guitar
d|----------------------------------------------------------------------------------9---|
A|--------------------------------------------------------------------------------------|
F|-------11-9----9-------------11-9----9---------------7-7------------------------------|
C|--4-4--------9----9-11--4-4--------9----9-11--12-11--7-7---4-4---3-x-x-x--x-x-x-------|
G|--4-4-------------------4-4--------------------------5-5---4-4---3-x-x-x--x-x-x-------|
C|--4-4-------------------4-4--------------------------------4-4---3-x-x-x--x-x-x-------|
                                                                   *
d|-----------------------------------------------------------------|
A|-----------------------------------------------------------------|
F|-------11-9----9------------11-9----9---------------7------------|
C|--4---------9----9-11--4-4--------9----9-11--12-11--7----x-x-9---|
G|--4--------------------4-4--------------------------5----x-x-9---|
C|--4--------------------4-4-------------------------------x-x-9---|

Chorus

Bridge
main guitar
d|-------------------------------|
A|--5----------------------------|
F|-------------------------------|
C|--0--------9-------------------|
G|--0--------9-------------------|
C|--0--------9--------11-9-7-9---|

main guitar
d|---------------------------------------------------------------|                 -|
A|---------------------------------------------------------------|                  |
F|---------------------------------------------------------------|                  |
C|---------------------------------------------------------------|                  |
G|------9----9-7-----7---7-5-5---4---5---5-4---2-4p2-------------|                  |
C|--4-4---11-------9---9-------4-------4-------------4-7---4-7---|                  |
                                                                                    | x2
second guitar                                                                       |
d|-------------------------------------------------------------------------------|  |
A|-------------------------------------------------------------------------------|  |
F|-----14----14-13------13----13-11-11----9---11----11-9---9-11p9----------------|  |
C|--------11---------11----11----------11--------11--------------11-11---12-11---|  |
G|-------------------------------------------------------------------------------|  |
C|-------------------------------------------------------------------------------| -|

Solo
main guitar
d|-------------------------------------------------------7---|
A|--------------------------7------7-9----7-9-10--7-9-10-----|
F|------6-7----6-7-9--6-7-9----7-9------9--------------------|
C|--7-9------9-----------------------------------------------|
G|-----------------------------------------------------------|
C|-----------------------------------------------------------|
    . . . .  . . . .  . . .    . .      . 
d|----------------------------7--------------------7-9-12-14---|
A|-----------------7------7-9-------7-9-10--7-9-10-------------|
F|----6-7-9--6-7-9----7-9-------6-7----------------------------|
C|--9----------------------------------------------------------|
G|-------------------------------------------------------------|
C|-------------------------------------------------------------|
    . . . .  . . .    . .       . .
second guitar
d|-----------------------------------------|
A|--5--------------------------------------|
F|-----------------------------------------|
C|--0--------9-----------------------------|
G|--0--------9-----------------------------|
C|--0--------9-----------------------------|

Post-Solo
second guitar
d|----------------------------------------------------|
A|----------------------------------------------------|
F|----------------------------------------------------|
C|--4-4-4-4-4-4-4-4-4-4-4-4-4-4-4-4-7-7-7-7-7-7-7-7---|
G|--4-4-4-4-4-4-4-4-4-4-4-4-4-4-4-4-7-7-7-7-7-7-7-7---|
C|--4-4-4-4-4-4-4-4-4-4-4-4-4-4-4-4-7-7-7-7-7-7-7-7---|
    . . . . . . . . . . . . . . . . . . . . . . . .
Final Chorus
Main Guitar
d|-------------------------------------------|
A|-------------------------------------------|
F|-------------------------------------------|
C|--7---------------------9------------------|
G|--7---------------------9------------------|
C|--7---------------------9------------------|

Second Guitar
d|---------------------------------------9---|
A|-------------------------------------------|
F|-------------------------------------------|
C|-------------------------------------------|
G|-------------------------------------------|
C|-------------------------------------------|

main guitar
d|-----------------------4---------------------7------------------------9-----------------------|
A|--5-------------------------------------------------------------------------------------------|
F|----------------------------------------------------------------------------------------------|
C|--0--------------------4---------------------7------------------------9-----------------------|
G|--0--------------------4---------------------7------------------------9-----------------------|
C|--0--------------------4---------------------7------------------------9-----------11-9-7-9v---|

second guitar
d|--------------------------------------------------------------------------------------------|
A|--------------------------------------------------------------------------------------------|
F|------------------------------------------------11-9----9-----------------------------------|
C|------------------------------------------------------9----9-11--12-11---7-9--7-9-----------|
G|--------------------------------------------------------------------------------------------|
C|--------------------------------------------------------------------------------------------|

Outro
Main Guitar
d|----------------------------------------------|
A|----------------------------------------------|
F|----------------------------------------------|
C|--4----11-9-7-9-4----11-9-7-5-4----11-9-7-9---|
G|--4----11-9-7-9-4----11-9-7-5-4----11-9-7-9---|
C|--4----11-9-7-9-4----11-9-7-5-4----11-9-7-9---|

Second Guitar
d|------------9-------------9-------------------|
A|----------------------------------------------|
F|----------------------------------------------|
C|----------------------------------------------|
G|----------------------------------------------|
C|----------------------------------------------|

Legend
. - palm mute
* - harmonic
p - pull-off
v - vibrato
x - lightly touching strings with finger while strumming
Suggest correction
What's this?
You can suggest a correction to this tab. Community and Mods will review your correction and vote to approve or reject it.
comments
print report bad tab
guest
You may want to rate the tab now too:
select rating
Please do not post tabs as comments. Select "correction" instead!