Oops, an error
Loading. Please wait.

Drown Tab

version 4
version 4

Whole song

Interactive

939 views 1 this week
no commentswrite comment
1 2 3 4 5
1 last vote to show rating
add to favorites
launch autoscroll
font size
0
reset
how to read this tab
guitar tuner
Autoscroll
slow
fast
+/-
esc
set tempo
stop
Help us to improve Ultimate-Guitar.com Take our survey!
×
Author
Difficulty
Tuning
intermediate
B F# B E G# C#
Tuning: B A D G B e

Sorry the chorus probably isn't the best but I think the rest is pretty accurate.

Intro:
e----------------------------------------|
B----------------------------------------|
G----------------------------------------|
D----------------------------------------|
A----------------------------------4-4-5-|
B-0-0-3-0-3-0-5-0-2-2/3-8--8--7-78--2----|

e------------------------------------------|
B------------------------------------------|
G------------------------------------------|
D------------------------------------------|
A----------------------------------------2-|
B-0-0-3-0-3-0-5-0-2-2/3-8--8--7-7-7-88-8-0-| (let ring into Verse)

Verse:

Good moning day, sorry I'm not there, but all my favourite friends,

e------------------------|
B------------------------|
G------------------------|
D------------------------|
A----------------------2-|
B----------------------0-| (Let Ring)
Have vanished in the air. It's hard to fly, when you can't even run. Once I had the world,

e------------------------|
B------------------------|
G------------------------|
D------------------------|
A--0---------------------|
B-10 (Let Ring)----------|
  But now I've got no one

Chorus:
e-----------------------------------------------------------------------|
B-----------------------------------------------------------------------|
G-----------------------------------------------------------------------|
D-----------------------------------------------------------------------|
A-5----5-------0----------0---------5-----5------4--------------4-5-----|
B-0----0------10---------10---------0-----0------2--------------2-3-----|
  If I needed someone to control me. If I needed someone to hold me down.

repeat

I would change my direction, And save myself before I.
If I needed someone to contro me. If I needed someone to push me around.
I would change my direction, And save myself before I

Repeat intro: Drown

Verse:
Good morning day, Sorry you're not here.
But all those times before, were never this unclear.
It's hard to walk, when you can't even crawl.
Once I had this world, but now I've lost it all.

Chorus

Verse:
Drown
Rolling faster than I'm breathing (3x)

Repeat Chorus
Suggest correction
Give kudos to tab author, rate the tab!
1 2 3 4 5
comments
print report bad tab
guest
You may want to rate the tab now too:
select rating
Wanna post a correction for this tab? Suggest correction