Oops, an error
Loading. Please wait.

Expectations bass

version 1
version 1

Whole song

Interactive

730 views 1 this week
no commentswrite comment
1 2 3 4 5
x 3
add to favorites
×
Save as Personal and add changes to this tab that will be seen only by you. Learn more ›
×
You can save this tab as Personal to edit and correct it or add notes. All changes will be seen only by you. Learn more »
launch autoscroll
font size
0
reset
guitar tuner
edit
Autoscroll
slow
fast
+/-
esc
set tempo
stop
credit to songsterr for sheet music/tabs

Intro - 8 bar rest - 
G|------|X1|------|----------------|---------|X3|------|---------------|
D|------|X1|------|----------------|---------|X3|------|---------------|
A|-4----|X1|-4----|-7-7-7-4--2-4~--|---------|X3|-4----|-9-9-9-7--4--2-|
D|------|X1|------|----------------|---------|X3|------|---------------|

Verse 1 - (comes in flush right after intro)- X4
G|------|-------|-------|---------------|
D|------|-------|-------|---------------|
A|-4----|-4-----|-4-----|-9-9-9-7--4--2-|
D|------|-------|-------|---------------|

Chorus 1 - x2
G|------------|------------|------------|------------|
D|------------|------------|------------|------------|
A|-4--4--4--4-|------------|------------|------------|
D|------------|-2--2--2--2-|-4--4--4--4-|-7--7--7--7-|

G|------------|------------|------------|------------|
D|------------|------------|------------|------------|
A|-4--4--4--4-|------------|------------|------------|
D|------------|-2--2--2--2-|-0--0--0--0-|-5--5--5--5-|

Verse 2 - X4
G|------|-------|-------|---------------|
D|------|-------|-------|---------------|
A|-4----|-4-----|-4-----|-9-9-9-7--4--2-|
D|------|-------|-------|---------------|

Chorus 2 - X2
G|------------|------------|------------|------------|
D|------------|------------|------------|------------|
A|-4--4--4--4-|------------|------------|------------|
D|------------|-2--2--2--2-|-4--4--4--4-|-7--7--7--7-|

G|------------|------------|------------|------------|
D|------------|------------|------------|------------|
A|-4--4--4--4-|------------|------------|------------|
D|------------|-2--2--2--2-|-0--0--0--0-|-5--5--5--5-|

Verse 3 - on the last time there, tiny rest after, where the 9-9-9 usually is
G|------|-------|-------|---------------|X3|------|-------|-------|
D|------|-------|-------|---------------|X3|------|-------|-------|
A|-4----|-------|-------|-9-9-9-7--4--2-|X3|-4----|-4-----|-4-----|
D|------|-------|-------|---------------|X3|------|-------|-------|

Chorus 3 - X4
G|------------|------------|------------|------------|
D|------------|------------|------------|------------|
A|-4--4--4--4-|------------|------------|------------|
D|------------|-0--0--0--0-|-7--7--7--7-|-2--2--2--2-|

Outro - 
G|------|------|----------------|---------|------|---------------|------|
D|------|------|----------------|---------|------|---------------|------|
A|-4----|-4----|-7-7-7-4--2-4~--|---------|-4----|-9-9-9-7--4--2-|-4----|
D|------|------|----------------|---------|------|---------------|------|

thats it enjoy, fairly simple

            
            
Suggest correction
Creating personal tab
Creating personal tab
You can edit any tab online and save it as your Personal.

You can edit, replace or remove any tab part or add personal notes – all changes will be seen only by you.

Personal tabs can be accessed anytime from any device, even offline.
Learn more »
Give kudos to tab author, rate the tab!
1 2 3 4 5
comments
print report bad tab
guest
You may want to rate the tab now too:
select rating
Wanna post a correction for this tab? Suggest correction