Oops, an error
Loading. Please wait.

Get Out Alive Bass Tab

version 1
version 1

Whole song

18,421 views 30 this week
6 commentsread comments
1 2 3 4 5
accurate
x 8
add to favorites
launch autoscroll
font size
0
reset
guitar tuner
Tab Pro tools
  • play this tab
  • loop segment
  • change instrument
  • show fretboard
  • metronome
×
Best way to learn
"Get Out Alive"
Autoscroll
slow
fast
+/-
esc
set tempo
stop
Contributor
Difficulty
Tuning
novice
D A D G B E
Song: Get Out Alive
Album: One-X
Artist: Three Days Grace
Year: 2006

Drop D

Bass Dosn't start 'till Chorus
Chorus
|----------------------|
|----------------------|
|----------------------|
|-5~----1~----3~----5~-|x2

Verse
|-------------------------------------------------|
|-------------------------------------------------|
|-------5---5-6-----3---3-5-----1---1-3-----0-1-0-|
|-5~--0-----------0-----------0-----------0-------|x3

Chorus x2

Bridge
|-----------------------------------------------------------------|
|-----------------------------------------------------------------|
|-----------------------------------------------------------------|
|-8-8-8-8-8-8-8-8-0-0-0-0-0-0-0-0-5-5-5-5-5-5-5-5-0-1-1-1-1-1-1-1-|x2

Verse x2 instead of x3

Distortion Verse
|-------------------------------------------------------|
|-------------------------------------------------------|
|-------------------------------------------------------|
|-8-7-5-5--0-0--13-13--10-10--0-0--8-8--10-10--8-7--5-5-|x2

Chorus x3

Bridge

Alternate Chorus
|-----------------------------------------------------------------|
|-----------------------------------------------------------------|
|-----------------------------------------------------------------|
|-5-5-5-5-5-5-5-5-1-1-1-1-1-1-1-1-3-3-3-3-3-3-3-3-5-5-5-5-5-5-5-5-|x4

Ta Da!
comments
print report bad tab
6 comments total. Showing first comments.
+1 reply
RS-GUITARIST wrote on September 4 2006, 08:01 pm

well that took alot of work eh hahahah

0 reply
monkeybuttox wrote on April 10 2007, 04:14 pm

aioawetklajoerfiaklf!!! your not a bass player. Its still good though and three days grace is good and all but there bass player sucks..

+3 reply
§ArmyofAngels§ wrote on August 26 2007, 05:21 am

yeah i dare you to say that to his face.

I want to post or [tab]
guest
You may want to rate the tab now too:
select rating
Please do not post tabs as comments. Select "correction" instead!