Oops, an error
Loading. Please wait.

Get Out Alive Bass Tab

version 1
version 1

Whole song

19,015 views 15 this week
6 commentsread comments
1 2 3 4 5
x 11
add to favorites
launch autoscroll
font size
0
reset
guitar tuner
Autoscroll
slow
fast
+/-
esc
set tempo
stop
Help us to improve Ultimate-Guitar.com Take our survey!
×
Author
Difficulty
Tuning
novice
D A D G B E
Song: Get Out Alive
Album: One-X
Artist: Three Days Grace
Year: 2006

Drop D

 Bass Dosn't start 'till Chorus
 [Chorus]
G|----------------------|
D|----------------------|
A|----------------------|
D|-5~----1~----3~----5~-|x2

 [Verse]
G|-------------------------------------------------|
D|-------------------------------------------------|
A|-------5---5-6-----3---3-5-----1---1-3-----0-1-0-|
D|-5~--0-----------0-----------0-----------0-------|x3

 [Chorus]
G|----------------------|
D|----------------------|
A|----------------------|
D|-5~----1~----3~----5~-|x2

 [Bridge]
G|-----------------------------------------------------------------|
D|-----------------------------------------------------------------|
A|-----------------------------------------------------------------|
D|-8-8-8-8-8-8-8-8-0-0-0-0-0-0-0-0-5-5-5-5-5-5-5-5-0-1-1-1-1-1-1-1-|x2

 [Verse]
G|-------------------------------------------------|
D|-------------------------------------------------|
A|-------5---5-6-----3---3-5-----1---1-3-----0-1-0-|
D|-5~--0-----------0-----------0-----------0-------|x2

 Distortion Verse
G|-------------------------------------------------------|
D|-------------------------------------------------------|
A|-------------------------------------------------------|
D|-8-7-5-5--0-0--13-13--10-10--0-0--8-8--10-10--8-7--5-5-|x2

 [Chorus]
G|----------------------|
D|----------------------|
A|----------------------|
D|-5~----1~----3~----5~-|x3

[Bridge]
 Alternate Chorus
G|-----------------------------------------------------------------|
D|-----------------------------------------------------------------|
A|-----------------------------------------------------------------|
D|-5-5-5-5-5-5-5-5-1-1-1-1-1-1-1-1-3-3-3-3-3-3-3-3-5-5-5-5-5-5-5-5-|x4

Ta Da!

************************************

| ~  Vibrato

************************************
Suggest correction
comments
print report bad tab
6 comments total. Showing first comments.
+1 reply
RS-GUITARIST 114 Sep 04, 2006 08:01 PM

well that took alot of work eh hahahah

0 reply
monkeybuttox 10 Apr 10, 2007 04:14 PM

aioawetklajoerfiaklf!!! your not a bass player. Its still good though and three days grace is good and all but there bass player sucks..

+3 reply
§ArmyofAngels§ 107 Aug 26, 2007 05:21 AM

yeah i dare you to say that to his face.

guest
You may want to rate the tab now too:
select rating
Wanna post a correction for this tab? Suggest correction