Oops, an error
Loading. Please wait.
We have an official Get Out Alive tab made by UG professional guitarists. Check out the tab »
×
245,297 views 300 this week
49 commentsread comments
1 2 3 4 5
x 113
add to favorites
×
Save as Personal and add changes to this tab that will be seen only by you. Learn more ›
×
You can save this tab as Personal to edit and correct it or add notes. All changes will be seen only by you. Learn more »
launch autoscroll
font size
0
reset
how to read this tab
guitar tuner
edit
Autoscroll
slow
fast
+/-
esc
set tempo
stop
Artist : Three Days Grace
Song   : Get Out Alive
Album  : One-X
Tuning : Drop D

Tabbed by jaames


[Intro/verse] (x6)

E|---------------------------------------------------------------------|
B|---------------------------------------------------------------------|
G|---------------------------------------------------------------------|
D|----0--------0-------0--------0-------0--------0--------0------------|
A|----------5-----5-6--------3-----3-5--------1-----1--3--------0-1-0--|
D|-5-----0----------------0----------------0-----------------0---------|


[Chorus] (x2)

E|----------------------------------------------------------|
B|----------------------------------------------------------|
G|-------0---0--------0---0------------0---0---------0---0--|
D|---------0------------0----------------0-------------0----|
A|---5------------1--------------3--------------5-----------|
D|-5---5--------1---1---------3-----3---------5---5---------|


[Intro/verse] (x6)

E|---------------------------------------------------------------------|
B|---------------------------------------------------------------------|
G|---------------------------------------------------------------------|
D|----0--------0-------0--------0-------0--------0--------0------------|
A|----------5-----5-6--------3-----3-5--------1-----1--3--------0-1-0--|
D|-5-----0----------------0----------------0-----------------0---------|


[Chorus] (x2)

E|----------------------------------------------------------|
B|----------------------------------------------------------|
G|-------0---0--------0---0------------0---0---------0---0--|
D|---------0------------0----------------0-------------0----|
A|---5------------1--------------3--------------5-----------|
D|-5---5--------1---1---------3-----3---------5---5---------|


[Bridge] (x2)

E|------------------------------------------------------------------------|
B|------------------------------------------------------------------------|
G|------------------------------------------------------------------------|
D|1010101010101010---0-0-0-0-0-0-0-0---5-5-5-5-5-5-5-5--0-1-1-1-1-1-1-1-1-|
A|-8-8-8-8-8-8-8-8---0-0-0-0-0-0-0-0---5-5-5-5-5-5-5-5--0-1-1-1-1-1-1-1-1-|
D|-8-8-8-8-8-8-8-8---0-0-0-0-0-0-0-0---5-5-5-5-5-5-5-5--0-1-1-1-1-1-1-1-1-|


[Intro/verse] (x6)

E|---------------------------------------------------------------------|
B|---------------------------------------------------------------------|
G|---------------------------------------------------------------------|
D|----0--------0-------0--------0-------0--------0--------0------------|
A|----------5-----5-6--------3-----3-5--------1-----1--3--------0-1-0--|
D|-5-----0----------------0----------------0-----------------0---------|


[Verse 2] (x2)

E|-------------------------------------------------------|
B|-------------------------------------------------------|
G|-------------------------------------------------------|
D|-8-7-5-5--0-0--13-13--10-10--0-0--8-8--10-10--8-7--5-5-|
A|-8-7-5-5--0-0--13-13--10-10--0-0--8-8--10-10--8-7--5-5-|
D|-8-7-5-5--0-0--13-13--10-10--0-0--8-8--10-10--8-7--5-5-|


[Chorus] (x6)

Gtr.1
E|----------------------------------------------------------|
B|----------------------------------------------------------|
G|-------0---0--------0---0------------0---0---------0---0--|
D|---------0------------0----------------0-------------0----|
A|---5------------1--------------3--------------5-----------|
D|-5---5--------1---1---------3-----3---------5---5---------|

Gtr.2 comes in 4th time and plays this
E|---------------------------------------------------------------------|
B|---------------------------------------------------------------------|
G|---------------------------------------------------------------------|
D|-5-5-5-5-5-5-5-5--1-1-1-1-1-1-1-1--3-3-3-3-3-3-3-3--5-5-5-5-5-5-5-5--|
A|-5-5-5-5-5-5-5-5--1-1-1-1-1-1-1-1--3-3-3-3-3-3-3-3--5-5-5-5-5-5-5-5--|
D|-5-5-5-5-5-5-5-5--1-1-1-1-1-1-1-1--3-3-3-3-3-3-3-3--5-5-5-5-5-5-5-5--|


[Bridge] (x2)

E|------------------------------------------------------------------------|
B|------------------------------------------------------------------------|
G|------------------------------------------------------------------------|
D|1010101010101010---0-0-0-0-0-0-0-0---5-5-5-5-5-5-5-5--0-1-1-1-1-1-1-1-1-|
A|-8-8-8-8-8-8-8-8---0-0-0-0-0-0-0-0---5-5-5-5-5-5-5-5--0-1-1-1-1-1-1-1-1-|
D|-8-8-8-8-8-8-8-8---0-0-0-0-0-0-0-0---5-5-5-5-5-5-5-5--0-1-1-1-1-1-1-1-1-|


[Chorus] (x6)

Gtr.1
E|----------------------------------------------------------|
B|----------------------------------------------------------|
G|-------0---0--------0---0------------0---0---------0---0--|
D|---------0------------0----------------0-------------0----|
A|---5------------1--------------3--------------5-----------|
D|-5---5--------1---1---------3-----3---------5---5---------|

Gtr.2 comes in 4th time and plays this
E|---------------------------------------------------------------------|
B|---------------------------------------------------------------------|
G|---------------------------------------------------------------------|
D|-5-5-5-5-5-5-5-5--1-1-1-1-1-1-1-1--3-3-3-3-3-3-3-3--5-5-5-5-5-5-5-5--|
A|-5-5-5-5-5-5-5-5--1-1-1-1-1-1-1-1--3-3-3-3-3-3-3-3--5-5-5-5-5-5-5-5--|
D|-5-5-5-5-5-5-5-5--1-1-1-1-1-1-1-1--3-3-3-3-3-3-3-3--5-5-5-5-5-5-5-5--|

And thats it, cool song, I didn't put alot of effort into it, so let me know
if there's any mistakes.
Suggest correction
Creating personal tab
Creating personal tab
You can edit any tab online and save it as your Personal.

You can edit, replace or remove any tab part or add personal notes – all changes will be seen only by you.

Personal tabs can be accessed anytime from any device, even offline.
Learn more »
comments
print report bad tab
49 comments total. Showing first comments.
0 reply
RS-GUITARIST 114 Jun 15, 2006 01:21 PM

there is a lead part right before the last chorus.

-2 reply
XxShredderxX 114 Jul 23, 2006 08:58 PM

the intro doesnt sound right

+1 reply
jaames 1,351 Aug 08, 2006 12:02 PM

you must have your timing wrong then, cause i slowed down the song, and i'm confident its very accurate...just try and get the timing down, and you'll see what im talkin about.

guest
You may want to rate the tab now too:
select rating
Wanna post a correction for this tab? Suggest correction