Oops, an error
Loading. Please wait.

Get Out Alive Bass Tab

version 2
version 2

Whole song

2,938 views 3 this week
no commentswrite comment
1 2 3 4 5
please rate
add to favorites
launch autoscroll
font size
0
reset
guitar tuner
Autoscroll
slow
fast
+/-
esc
set tempo
stop
Help us to improve Ultimate-Guitar.com Take our survey!
×
Author
Difficulty
intermediate
Three Days Grace - Get out alive
Album: One X

bass tab

by : doky 2007
taquilleros_de_sudamerica_maroyu_el_grupo_tropical_del_momento@hotmail.com

5-stringed bass
G D A E B

   INTRO
G-|---------------|
D-|---------------|
A-|---------------|
E-|-3-------1---3-|
B-|-----4---------|
                                                                              
 
   VERSO
G-|--------------------------------|
D-|--------------------------------|
A-|------5--6--3--5--1--3--0--1--0-|
E-|-3--3---------------------------|
B-|--------------------------------|
                                                                              

   CORO
G-|-----------------------------|---|--------|
D-|-----------------------------|---|--------|
A-|--------555555---------------|---|--------|
E-|-666666--------333333--------|---|-6-5-23-|
B-|----------------------444444-|---|--------|
                                  +                                            

   BREAK
G-|------------|-------|---------------------*---------|---|------------|
D-|------------|-------|---------------------*---------|---|------------|
A-|------------|-------|-3----66-33----11----*---------|---|------------|
E-|-3333333333-|-653---|---------------------*-5---653-|---|-565---3----|
B-|------------|-------|---33-------33----11-*---------|---|-----3------|
                                                         +                     

Les mando salutos a los que estan en la banda del Instituto Americano 2007, en especial
a los de percusion, cuatson, yo estaba en percusion tambien y me emociona ver
un tambor asi sea de lata, me da ganas de arreglar todos los tambores como antes
pero no puedo porque estoy estudiando a lo tata en la Facultad de Odontologia.

doky2007
Suggest correction
Give kudos to tab author, rate the tab!
1 2 3 4 5
comments
print report bad tab
guest
You may want to rate the tab now too:
select rating
Please do not post tabs as comments. Select "correction" instead!