Oops, an error
Loading. Please wait.

Get Out Alive Bass Tab

version 3
version 3

Whole song

1,732 views 6 this week
no commentswrite comment
1 2 3 4 5
please rate
add to favorites
launch autoscroll
font size
0
reset
guitar tuner
Autoscroll
slow
fast
+/-
esc
set tempo
stop
Help us to improve Ultimate-Guitar.com Take our survey!
×
Author
Difficulty
novice
Tuning E,A,D,G

This bass comes in at about 0:58 seconds

|---------------------------------|
|---------------------------------|
|--5-5-6-6-3-3-5-5----------------|
|-----------------6-6-8-8-5-6-5-3-| x3

|--------------------------------------|
|--------------------------------------|
|--555555555-66666666-33333333---------|
|-----------------------------33333333-| x4

|-------------------------------------|
|-------------------------------------|
|-----------55555555--------66666666--|
|---66666666--------33333333----------| x2

[Drum Build Up]

|----------------------------------------|
|----------------------------------------|
|-------5-5-6-6-3-3-5-5------------------|
|-563-33---------------6-6-8-8-5-563-33--| x2

[Another build up]

|----------------------------------------|
|----------------------------------------|
|----55555555-66666666-------------------|
|---------------------88888888-33333333--| x2

|-------------------------------------|
|-------------------------------------|
|-----------55555555--------66666666--|
|---66666666--------33333333----------| x4

|----------------------------------------|
|----------------------------------------|
|-------5-5-6-6-3-3-5-5------------------|
|-563-33---------------6-6-8-8-5-563-33--| x6


Any problems e-mail me: toast-ninjutsu@hotmail.com
Suggest correction
Give kudos to tab author, rate the tab!
1 2 3 4 5
comments
print report bad tab
guest
You may want to rate the tab now too:
select rating
Please do not post tabs as comments. Select "correction" instead!