Oops, an error
Loading. Please wait.

Get Out Alive Tab

version 3
version 3
16,256 views 21 this week
10 commentsread comments
1 2 3 4 5
please rate
add to favorites
launch autoscroll
font size
0
reset
how to read this tab
guitar tuner
Autoscroll
slow
fast
+/-
esc
set tempo
stop
Help us to improve Ultimate-Guitar.com Take our survey!
×
Author
Tuning
D A D G B E
Tabbed By: RS-GUITARIST

Song: Get Out Alive
Album: One-X (2006)
Artist: Three Days Grace
Tuning: Drop D (DADGBe)
Amp Setting: Gain: 7, Treble: 10, Middle: 2, Bass: 2, Reverb: 6
Channels: Overdrive, Clean

Guitar 1: Barry Stock
Guitar 2: Adam Gontier

Intro: Guitar 1
e|-------------------------------------------------------------|x2
B|-------------------------------------------------------------|
G|-------------------------------------------------------------|
D|-------------------------------------------------------------|
A|-----5----5-6-----3----3-5----1------1-3-------0-1-0~---|D|--|

Guitar 2
e|---------------------------------------------------------|x2
B|---------------------------------------------------------|
G|---------------------------------------------------------|
D|----0-----0------0-----0------0-----0------0-------------|
A|---------------------------------------------------------|
D|-5-----0------------0------------0------------0----------|

Verse One: Guitar 1 - “No time for goodbye…”
e|---------------------------------------------------------|x3
B|---------------------------------------------------------|
G|---------------------------------------------------------|
D|----0-----0------0-----0------0-----0------0-------------|
A|-------5----5-6-----3-----3-5-----1----1-3------0-1-0~---|
D|-5---0------------0------------0------------0------------|

Chorus One: Guitar 1 - “If you wanna get out alive…”
e|---------------------------------------------------------|x2
B|---------------------------------------------------------|
G|------0~------0~--------0~--------0~--0~-----------------|
D|-----0~-0~---0~-0~-----0~-0~-----0~--0~------------------|
A|-5---------1-------3---------5---------------------------|
D|-5---------1-------3---------5---------------------------|

Verse Two: Guitar 1
e|---------------------------------------------------------|
B|---------------------------------------------------------|
G|---------------------------------------------------------|
D|---------------------------------------------------------|
A|-----5----5-6-----3----3-5----1------1-3-------0-1-0~----|
D|---------------------------------------------------------|

Guitar 2
e|---------------------------------------------------------|
B|---------------------------------------------------------|
G|---------------------------------------------------------|
D|----0-----0------0-----0------0-----0------0-------------|
A|---------------------------------------------------------|
D|-5-----0------------0------------0------------0----------|

Guitar 1 - “This is my last time…”
e|---------------------------------------------------------|x3
B|---------------------------------------------------------|
G|---------------------------------------------------------|
D|----0-----0------0-----0------0-----0------0-------------|
A|-------5----5-6-----3-----3-5-----1----1-3------0-1-0~---|
D|-5---0------------0------------0------------0------------|

Chorus Two: Guitar 1 - “If you wanna get out alive…”
e|---------------------------------------------------------|x4
B|---------------------------------------------------------|
G|------0~------0~--------0~--------0~--0~-----------------|
D|-----0~-0~---0~-0~-----0~-0~-----0~--0~------------------|
A|-5---------1-------3---------5---------------------------|
D|-5---------1-------3---------5---------------------------|

Bridge One: Guitar 1 - “If I stay, it won’t be long…”
E|------------------------------------------------------------------|x2
B|------------------------------------------------------------------|
G|-----------------2-2-2-2-2-2-2-2----------------------------------|
D|1010101010101010-0-0-0-0-0-0-0-0-5-5-5-5-5-5-5-5-0-1-1-1-1-1-1-1-1|
A|-8-8-8-8-8-8-8-8-0-0-0-0-0-0-0-0-5-5-5-5-5-5-5-5-0-1-1-1-1-1-1-1-1|
D|-8-8-8-8-8-8-8-8-0-0-0-0-0-0-0-0-5-5-5-5-5-5-5-5-0-1-1-1-1-1-1-1-1|

Repeat Intro: Guitar 1 (Effects)
e|---------------------------------------------------------|
B|---------------------------------------------------------|
G|---------------------------------------------------------|
D|----0-----0------0-----0------0-----0------0-------------|
A|-------5---5-6-----3-----3-5-----1----1-3-------0-1-0~---|
D|-5---0------------0------------0------------0------------|

Breakdown One: Guitar 1
e|---------------------------------------------------------|x2
B|---------------------------------------------------------|
G|---------------------------------------------------------|
D|-8-7-5--5-5--0-0--13-13--10-10--0-0--8-8--10-10-0--------|
A|-8-7-5--5-5--0-0--13-13--10-10--0-0--8-8--10-10-0--------|
D|-8-7-5--5-5--0-0--13-13--10-10--0-0--8-8--10-10-0--------|

Breakdown One End: Guitar 1
e|---------------------------------------------------------|
B|---------------------------------------------------------|
G|---------------------------------------------------------|
D|-8-7-5~--------------------------------------------------|
A|-8-7-5~--------------------------------------------------|
D|-8-7-5~--------------------------------------------------|

Chorus Three: Guitar 1
e|---------------------------------------------------------|x2
B|---------------------------------------------------------|
G|------0~------0~--------0~--------0~---------------------|
D|-----0~-0~---0~-0~-----0~-0~-----0~--0~------------------|
A|-5---------1-------3---------5---------------------------|
D|-5---------1-------3---------5---------------------------|


Chorus Four:
Guitar 1: Distortion                         Guitar 2:
e|---------------------------------------| e|-----------------------------|x2
B|---------------------------------------| B|-----------------------------|
G|---------------------------------------| G|---0~-----0~-----0~-----0~---|
D|-55555555--11111111-33333333-55555555--| D|--0~-0~--0~-0~--0~-0~--0~-0~-|
A|-55555555--11111111-33333333-55555555--| A|-5------1------3------5------|
D|-55555555--11111111-33333333-55555555--| D|-5------1------3------5------|

Bridge Two: Guitar 1: “If I stay, it won’t be long…”
E|------------------------------------------------------------------|x2
B|------------------------------------------------------------------|
G|-----------------2-2-2-2-2-2-2-2----------------------------------|
D|1010101010101010-0-0-0-0-0-0-0-0-5-5-5-5-5-5-5-5-0-1-1-1-1-1-1-1-1|
A|-8-8-8-8-8-8-8-8-0-0-0-0-0-0-0-0-5-5-5-5-5-5-5-5-0-1-1-1-1-1-1-1-1|
D|-8-8-8-8-8-8-8-8-0-0-0-0-0-0-0-0-5-5-5-5-5-5-5-5-0-1-1-1-1-1-1-1-1|


Breakdown Two: Guitar 1
e|---------------------------------------------------------|x3
B|---------------------------------------------------------|
G|---------------------------------------------------------|
D|-8-7-5--5-5--0-0--13-13--10-10--0-0--8-8--10-10-0--------|
A|-8-7-5--5-5--0-0--13-13--10-10--0-0--8-8--10-10-0--------|
D|-8-7-5--5-5--0-0--13-13--10-10--0-0--8-8--10-10-0--------|

Breakdown Two End: Guitar 2
e|---------------------------------------------------------|
B|---------------------------------------------------------|
G|---------------------------------------------------------|
D|-8-7-5~~~~~----------------------------------------------|
A|-8-7-5~~~~~----------------------------------------------|
D|-8-7-5~~~~~----------------------------------------------|

Outro: Guitar 1 - Light Distortion
e|---------------------------------------------------------|
B|------------------------------0~-------------------------|
G|------------------------------0~-------------------------|
D|---7--8/7-5-7--------5-7-8/7--5~-------------------------|
A|-5----------5----5-0----------5~-------------------------|
D|--------------5-0----------------------------------------|

*Order*:
Intro: Guitar 1 – Clean (x2), Guitar 2 – Clean (x2)
Verse One: Guitar 1 – Clean (x3)
Chorus One: Guitar 1 – Distortion (x2)
Repeat Intro: Guitar 1 – Clean, Guitar 2 – Clean
Verse Two: Guitar 1 – Clean (x3)
Chorus Two: Guitar 1 – Clean (x4)
Bridge One: Guitar 1 – Distortion (x2)
Repeat Intro: Guitar 1 - (Effects)
Breakdown One: Guitar 1 – Distortion (x2)
Breakdown One End: Guitar 1 – Distortion (Let Ring)
Chorus Three: Guitar 1 (x2)
Chorus Four: Guitar 1 – Distortion (x2), Guitar 2 – Clean (x2)
Bridge Two: Guitar 1 – Distortion (x2)
Breakdown Two: Guitar 2 – Distortion (x3)
Breakdown One End: Guitar 1 – Distortion (Let Ring)
Outro: Guitar 1 – Light Distortion

Tabber's Comments: Hey how's it going? This is my first tab effort, i took the pride and
to tab it out on electric for all you 3DG fans. I gave you all the amp settings (which
found "on my own" lol) in which I used to tab this song. I've tabbed "Get Out Alive"
two guitars, because it is probalby is played like this or differently in live shows.
tab is also fun to play if you have a band. *Note* that in "Chorus One" the drums and
bass start playing, so there is none of that before "Chorus One". In "Chorus Four", Guitar
and Guitar 2 play their parts two times (x2) at the same time. And im off to unlock the outr for all of you.
Thanks to everyone at UG and all Three Days Grace fans, you guys rock.
Suggest correction
What's this?
You can suggest a correction to this tab. Community and Mods will review your correction and vote to approve or reject it.
comments
We did not receive enough feedback on this tab! Please rate:
print report bad tab
1 2 3 4 5
10 comments total. Showing first comments.
0 reply
RS-GUITARIST 280 wrote on July 6 2006, 01:38 pm

Excuse my spelling mistakes.

0 reply
jaames 1,166 wrote on July 6 2006, 02:03 pm

Two things dude, i believe the intro/verse is just played on one guitar, its pretty simple, its not complicated enough to be played on 2 guitars, playing it on 2 guitars makes it more complicated I think, lol. And for the bridge the 1st chord they play is this one, no doubt about it, listen closely to the bridge, I'm pretty sure they play it like this...
E|------------------------------------------------------------------|
B|------------------------------------------------------------------|
G|------------------------------------------------------------------|
D|1010101010101010-0-0-0-0-0-0-0-0-5-5-5-5-5-5-5-5-0-1-1-1-1-1-1-1-1|
A|-8-8-8-8-8-8-8-8-0-0-0-0-0-0-0-0-5-5-5-5-5-5-5-5-0-1-1-1-1-1-1-1-1|
D|-8-8-8-8-8-8-8-8-0-0-0-0-0-0-0-0-5-5-5-5-5-5-5-5-0-1-1-1-1-1-1-1-1|

0 reply
RS-GUITARIST 280 wrote on July 6 2006, 08:30 pm

hmmm, yes, cuz it would fi the bass tab then. hmm, i will think it over more

guest
You may want to rate the tab now too:
select rating
Please do not post tabs as comments. Select "correction" instead!