Oops, an error
Loading. Please wait.
We have an official Get Out Alive tab made by UG professional guitarists. Check out the tab »
×
4,468 views 1 this week
2 commentsread comments
1 2 3 4 5
x 5
add to favorites
×
Save as Personal and add changes to this tab that will be seen only by you. Learn more ›
×
You can save this tab as Personal to edit and correct it or add notes. All changes will be seen only by you. Learn more »
launch autoscroll
font size
0
reset
how to read this tab
guitar tuner
edit
Autoscroll
slow
fast
+/-
esc
set tempo
stop
Author
Difficulty
verse riff
e(---------------------------------------------)
b(---------------------------------------------)
g(---------------------------------------------)
d(----0----0----0----0----0----0----0----0-----)
a(-------5---56---63---35---51---13---30---10--)
D(--5---5------------------------------------5-)

chorus riff
e(--------)
b(--------)
g(------0-) let the open "g" ring
d(--555---)
a(--555---)
D(--555---)

bridge
e(-------------------------------------------------------------------)
b(--6666666666666666----------------6666666666666666-----------------)
g(--5555555555555555----------------5555555555555555-----------------)
d(--3333333333333333555555553333111133333333333333335555555555555555-)
a(------------------5555555533331111----------------5555555555555555-)
D(------------------5555555533331111----------------5555555555555555-)

bridge continued
e(------------------------------------------)
b(------------------------------------------)
g(------------------------------------------)
d(----0----0----0----0----0----0----0----0--)
a(-------5---56---63---35---51---13---30----)
D(--5---5-----------------------------------)

bridge continued
e(------------------------------------------------------)
b(------------------------------------------------------)
g(-------77-88-55-77----55---------77-88-55-77----55----)
d(--8755-77-88-55-77-88-55-77-8755-77-88-55-77-88-55-77-)
a(--8755-55-66-33-55-88-33-77-8755-55-66-33-55-88-33-77-)
D(--8755-------------88----77-8755-------------88----77-)

outro
e(----------------------------------)
b(----------------------6---8---6-8-)
g(--8-7-5---5-5h7-0---------------7-)
d(--------8---------8-7---0---0---5-)
a(----------------------------------)
D(----------------------------------)

            
            
Suggest correction
Creating personal tab
Creating personal tab
You can edit any tab online and save it as your Personal.

You can edit, replace or remove any tab part or add personal notes – all changes will be seen only by you.

Personal tabs can be accessed anytime from any device, even offline.
Learn more »
comments
print report bad tab
2 comments total.
0 reply
Limro 10 Apr 02, 2007 01:13 PM

Dude - why do you turn E5 down? There's no reason when you don't hit D# or D.

0 reply
narwhalsareli1 10 Jan 02, 2016 05:47 AM

the intro is wrong. the tab does not support the song
a a a a a a a a aa a a a

guest
You may want to rate the tab now too:
select rating
Wanna post a correction for this tab? Suggest correction