Oops, an error
Loading. Please wait.

Goin Down Bass Tab

version 1
version 1

Whole song

Interactive

5,695 views 9 this week
4 commentsread comments
1 2 3 4 5
excellent!
x 7
add to favorites
launch autoscroll
font size
0
reset
guitar tuner
Autoscroll
slow
fast
+/-
esc
set tempo
stop
Help us to improve Ultimate-Guitar.com Take our survey!
×
Author
Tuning
D A D G B E
-------------------------------------------------------------------------------
			     GOIN' DOWN - Three Days Grace
-------------------------------------------------------------------------------

Tabbed By : mariewong

Tuning: Drop D



Intro:

G|---------------5--------------------|
D|-77777775777757-5-777777757777771~--|
A|------------------------------------|
D|------------------------------------|



Verse:
Took me down to the river
So I could drown, drown, drown
Looking up through the water
I kept sinking down, down, down
I feel like I'm dying
I got one foot in the ground
Never knew where the love was
Until you came round

G|-----------------------------------------------------|
D|-----------------------------------------------------|
A|-0(x20)-3(x4)-0(x7)----0(x16)-3(x4)-2(x4)-0000--03---|
D|--------------------5--------------------------5--5--|

G|---------------------------------------------|
D|---------------------------------------------|
A|-0(x20)-3(x4)-0(x7)----0(x14)----------------|
D|--------------------5---------5-3-3(x8)-3-3--|



Chorus:
You're goin' down
You're goin' down, down
You walk all over me
You never thought I'd be
The one who's laughing now
Now that you're goin' down
G|---------------------------------------------|
D|---------------------------------------------|
A|-5---------------------5---------------------|
D|--0-0-30-0-67-60-30-0---0-0-30-0-67-60-30-0--|

G|---------------------------------|
D|---------------------------------|
A|-5-------------------------3333--|
D|--0-0-30-0-67-60-30-0-3333-------|



Pre-verse:

G|---------------5--------------------|
D|-77777775777757-5-777777757777771~--|
A|------------------------------------|
D|------------------------------------|


Verse:
Take you down to the basement
You look around, round, round
We sit there in silence
I watch you going down, down, down
I feel like I'm flying
I got my head in the clouds
Never thought I was crazy
Until you came around

G|-----------------------------------------------------|
D|-----------------------------------------------------|
A|-0(x20)-3(x4)-0(x7)----0(x16)-3(x4)-2(x4)-0000--03---|
D|--------------------5--------------------------5--5--|

G|---------------------------------------------|
D|---------------------------------------------|
A|-0(x20)-3(x4)-0(x7)----0(x14)----------------|
D|--------------------5---------5-3-3(x8)-3-3--|



Chorus:
You're goin' down
You're goin' down, down
You walk all over me
You never thought I'd be
The one who's laughing now
Now that you're goin' down
You're goin' down, down
You walk all over me
You never thought I'd be
The one who's laughing now
Now that you're goin' down

G|---------------------------------------------|
D|---------------------------------------------|
A|-5---------------------5---------------------|
D|--0-0-30-0-67-60-30-0---0-0-30-0-67-60-30-0--|

G|---------------------------------|
D|---------------------------------|
A|-5-------------------------3333--|
D|--0-0-30-0-67-60-30-0-3333-------|

G|---------------------------------------------|
D|---------------------------------------------|
A|-5---------------------5---------------------|
D|--0-0-30-0-67-60-30-0---0-0-30-0-67-60-30-0--|

G|-----------------------------------------|
D|-----------------------------------------|
A|-5-----------------------------33333333--|
D|--0-0-30-0-67-60-30-0-33333333-----------|


G|-------------------------------------------|
D|-------------------------------------------|
A|---5---0---3------------5---0---3---3-365--|
D|-0---0---0---0-5-555--0---0---0---0--------|

G|------------------------------------------|
D|------------------------------------------|
A|---5---0---3------------5---0---33333333--|
D|-0---0---0---0-5-555--0---0---0-----------|



Break:
Took me down to the river
So I could drown, drown, drown



Chorus:
You're goin' down
You're goin' down, down
You walk all over me
You never thought I'd be
The one who's laughing now
Now that you're goin' down
You're goin' down, down
You walk all over me
You never thought I'd be
The one who's laughing now
Now that you're goin' down

G|---------------------------------------------------|
D|---------------------------------------------------|
A|-5555--5---------------------5---------------------|
D|--------0-0-30-0-67-60-30-0---0-0-30-0-67-60-30-0--|

G|-----------------------------------------|
D|-----------------------------------------|
A|-5-----------------------------33333333--|
D|--0-0-30-0-67-60-30-0-33333333-----------|

G|---------------------------------------------|
D|---------------------------------------------|
A|-5---------------------5---------------------|
D|--0-0-30-0-67-60-30-0---0-0-30-0-67-60-30-0--|

G|-------------------------------------|
D|-------------------------------------|
A|-5-------------------------33333333--|
D|--0-0-30-0-67-60-30-0-3333-----------|








| /  slide up
| \  slide down
| h  hammer-on
| p  pull-off
| ~  vibrato
| +  harmonic
| x  Mute note
===============================================================================
Suggest correction
What's this?
You can suggest a correction to this tab. Community and Mods will review your correction and vote to approve or reject it.
comments
print report bad tab
4 comments total. Showing first comments.
0 reply
U B the band 5,212 wrote on September 24 2009, 12:09 pm

I gave this a 4 star because the Intro is a little off. You have the right notes and all BUT the Intro is a whole octive up from the Verse (the Verse is lower). When you fix it I'll change my rating to a 5 star.

0 reply
TheThirdDay 654 wrote on February 27 2010, 01:24 am

Close enough lol.
The intro goes like this (ends with 55 instead of 1):


G|---------------5----------------55--|
D|-77777775777757-5-77777775777777----|
A|------------------------------------|
D|------------------------------------|

And the verse goes like this (the end has two 5's instead of 5 3, but I think that's just a typo):

G|---------------------------------------------|
D|---------------------------------------------|
A|-0(x20)-3(x4)-0(x7)----0(x14)----------------|
D|--------------------5---------5-5-3(x8)-3-3--|

0 reply
TheThirdDay 654 wrote on February 27 2010, 01:25 am

Scratch that. The intro goes like this:


G|---------------5--------------------|
D|-77777775777757-5-77777775777777----|
A|--------------------------------33--|
D|------------------------------------|

guest
You may want to rate the tab now too:
select rating
Please do not post tabs as comments. Select "correction" instead!