Oops, an error
Loading. Please wait.

Gone Forever Bass Tab

version 1
version 1

Whole song

Interactive

8,341 views 3 this week
2 commentsread comments
1 2 3 4 5
x 3
add to favorites
launch autoscroll
font size
0
reset
guitar tuner
×
Best way to learn
"Gone Forever"
Autoscroll
slow
fast
+/-
esc
set tempo
stop
Author
Difficulty
  follow
intermediate
Three Days Grace - Gone forever
Album: One X

bass tab

by : doky 2007
taquilleros_de_sudamerica_maroyu_el_grupo_tropical_del_momento@hotmail.com

5-stringed bass
G D A E B

   BREAK
G-|----------------|
D-|----------------|
A-|-77779999-10----|
E-|----------------|
B-|----------------|
                                                                              

   CORO
G-|---------------------|---------------------|-----------------|----------|
D-|---------------------|---------------------|-----------------|----------|
A-|---------------------|---------------------|-----------------|----------|
E-|-22---33--------5555-|------3333------5555-|-333333-2--357---|-77777777-|
B-|-----------3333------|-0000------3333------|-----------------|----------|
                                                    *C*                        

   VERSO
G-|--------------------------------|------------|---------|------------------|
D-|---------99---------------------|-----2-4----|---------|------------------|
A-|------99--------77-55-----------|-0----------|---------|-----7777999910---|
E-|-7777-------5555-----333333-----|------------|---------|-5555-------------|
B-|----------------------------333-|------------|---------|------------------|
                *A*                                + A +                       

   MIDDLE
G-|-------------------------|-------------------------|-------|-------|
D-|-------------------------|-------------------------|-------|-------|
A-|-------------------797---|-------------------575---|-------|-------|
E-|-00000000-77777777-----7-|-00000000-77775555-----5-|-------|-------|
B-|-------------------------|-------------------------|-------|-------|
                *B*                                     + B +   + C +          

   FIN
G-|-----------------|---------------|
D-|-----------------|---------------|
A-|-----------------|---------------|
E-|-33333333-2---35-|---------------|
B-|-----------------|---------------|
                      + ultimo es C                                            

Les congratulo taramente a los cuates de una banda que nunca ensayamos y tampoco tenia nombre:
Ranas: que es mi hermano y toca la guitarra
Omar: vocal
Jaxi: bata
yo iba a tocar el bajo y creo que habia alguien mas pero no me acuerdo, tampoco se porque
nunca tocamos ni nada si supestamente estaban animados. yats.

doky2007
Suggest correction
Give kudos to tab author, rate the tab!
1 2 3 4 5
comments
print report bad tab
2 comments total.
0 reply
tynman_19 20 Sep 06, 2007 11:54 AM

dude i dont know what song you're listening to, but the bass line i hear is a lot closer to the chords of the lead guitarist

0 reply
123581321 10 Apr 25, 2008 07:55 AM

dude f**king tab it in english a*smunch

guest
You may want to rate the tab now too:
select rating
Wanna post a correction for this tab? Suggest correction