Oops, an error
Loading. Please wait.
We have an official Gone Forever tab made by UG professional guitarists. Check out the tab »
×
49,205 views 24 this week
4 commentsread comments
1 2 3 4 5
x 7
add to favorites
×
Save as Personal and add changes to this tab that will be seen only by you. Learn more ›
×
You can save this tab as Personal to edit and correct it or add notes. All changes will be seen only by you. Learn more »
launch autoscroll
font size
0
reset
how to read this tab
guitar tuner
backing track
0:00
0:00
edit
Autoscroll
slow
fast
+/-
esc
set tempo
stop
Author
Difficulty
Gone Forever - Three Days Grace    
Tabbed by:Matthew Connell
Email:method2amelody@hotmail.com

Tuning:STANDARD

every tab I see for this song is in Drop-d tuning, it wasn't much to my liking. So try
one in *STANDARD TUNING*
Enjoy!

intro- Bm over and over and over :P


-Verse 1-

Bm
Don't know what's going on

A                    Em
Don't know what went wrong

G                            D                        A
Feels like a hundred years I still can't believe your gone

Bm
So I'll stay up all night

A                     Em
with these bloodshot eyes

G                            D               A      Em  *play before chorus*
While these wall surround me with the story of our life D--4---5---|
                                                        A--4---5---|
-Chorus-                                                E--2---3---|


   I feel so much better, now that you're gone forever
e|--------x-----------------------------------------------------------------|
B|--------x-----------------7-----------------------------------------------|
G|-4-----x------------------7-----------------------------------------------|
D|-4-----x--5---------------5----------------7------------------------------|
A|-2-----x--5--------------------------------7------------------------------|
E|-------x--3--------------------------------5------------------------------|


   tell myself that I don't miss you at all
e|--------x------------------------------------------------------------------|
B|--------x------------------------------------------------------------------|
G|-4------x-----------------7------------------------------------------------|
D|-4------x----5------------7-------------------4----------------------------|
A|-2------x----5------------5-------------------4----------------------------|
E|--------x----3--------------------------------2----------------------------|


        not liying denying that I feel so much better
e|--------------------------------------------------------------------------|
B|--------------------------------------------------------------------------|
G|--4--------------------------7 -------------------------------------------|
D|--4---------------5----------7-------------7------------------------------|
A|--2---------------5----------5-------------7------------------------------|
E|------------------3------------------------5------------------------------|


     Now ...........          that your gone forever
e|---------------------------------------------------------------------------|
B|---------------------------------------------------------------------------|
G|---------------------------------------------------------------------------|
D|---5----------------------------------------4------5-----------------------|
A|---5----------------------------------------4------5-----------------------|
E|---3----------------------------------------2------3-----------------------|

-Verse 2-    Bm over and over

Bm
Now things are coming clear

A                    Em
and I don't need you here

G                            D       A
and in this world around me I'm glad you disappeared

Bm
So I'll stay out all night

A                     Em
get drunk and fucking fight

G                        D                A
until the morning comes I'll forget about our life

(Chorus)


-Bridge-


first time you screamed at me, I should have made you leave

e|--------------------------------------------------------------------------|
B|--------------------------------------------------------------------------|
G|-0-------------------------------------4----------------------------------|
D|-2-------------------------------------2----------------------------------|
A|-2-------------------------------------2----------------------------------|
E|-0------------------------------------------------------------------------|


   I should have known it could be so much better

e|--------------------------------------------------------------------------|
B|--------------------------------------------------------------------------|
G|---------------------------------7----------------------------------------|
D|-5-------------------------------7-------7--------------------------------|
A|-5-------------------------------5-------7--------------------------------|
E|-3---------------------------------------5--------------------------------|


I hope you're missing me, I hope I've made you see that I'm  GONE FOREVER

e|--------------------------------------------------------------------------|
B|--------------------------------------------------------------------------|
G|-0---------------------------4--------------------------------------------|
D|-2---------------------------2-------------------5---------4------5-------|
A|-2---------------------------2-------------------5---------4------5-------|
E|-0-----------------------------------------------3---------2------3-------|

            
            
Suggest correction
Creating personal tab
Creating personal tab
You can edit any tab online and save it as your Personal.

You can edit, replace or remove any tab part or add personal notes – all changes will be seen only by you.

Personal tabs can be accessed anytime from any device, even offline.
Learn more »
comments
print report bad tab
4 comments total. Showing first comments.
+1 reply
jaames 1,351 Aug 02, 2006 12:51 PM

If you had'nt noticed, all of three days graces songs are in either drop d, or drop c. And this one's definetly in drop D, not standard.
And they play power chords throughout the whole song.

0 reply
Lydia_31993 30 Feb 07, 2008 07:22 PM

i think this tab is REELY good.
but ur missing out the solo at the end

0 reply
littlezhe 10 Jul 23, 2008 10:10 AM

yeahh will u please add the outro?

guest
You may want to rate the tab now too:
select rating
Wanna post a correction for this tab? Suggest correction