Oops, an error
Loading. Please wait.
We have an official Gone Forever tab made by UG professional guitarists. Check out the tab »
×
7,424 views 3 this week
2 commentsread comments
1 2 3 4 5
x 5
add to favorites
×
Save as Personal and add changes to this tab that will be seen only by you. Learn more ›
×
You can save this tab as Personal to edit and correct it or add notes. All changes will be seen only by you. Learn more »
save as personal
new!
launch autoscroll
font size
0
reset
guitar tuner
backing track
0:00
0:00
Autoscroll
slow
fast
+/-
esc
set tempo
stop
Difficulty
novice
Tune : E,A,D,G

Bass at 0:32

E|--------------|
A|7777-9999-10--|
D|--------------|
G|--------------|

|-22-33--------555-55-|
|-------555-55--------|
|---------------------| (x2)
|---------------------|


|--------333-33-555-55--------33333-2~-----5~-|
|-222-22---------------555-55-----------------|
|---------------------------------------------|
|---------------------------------------------|

|77777--7777----5555----3333--0000012-|
|-----------9955----9955--------------|
|-------------------------------------|
|-------------------------------------| (x2)

E|--------------|
A|7777-9999-10--|
D|--------------|
G|--------------|

|-22-33--------555-55-|
|-------555-55--------|
|---------------------| (x2)
|---------------------|

|--------333-33-555-55--------33333-2~-----5~-|
|-222-22---------------555-55-----------------|
|---------------------------------------------|
|---------------------------------------------|

|00000000-----------000000000--------------000000000-------333322335555---|
|--------22222253h20---------22222000053h20---------2222222---------------|
|-------------------------------------------------------------------------|
|-------------------------------------------------------------------------|

[Just guitair and vocals, then the cool little feedback build up XP]


|-22-33--------555-55-|
|-------555-55--------|
|---------------------| (x2)
|---------------------|

|--------333-33-555-55--------33333-2~-----5~-|
|-222-22---------------555-55-----------------|
|---------------------------------------------|
|---------------------------------------------|

Outro:
3333-2222-3333-5555-33333 (x5)

Cheers easy this is my second tab, any problems, send me a email : toast-ninjutsu@hotmail.com

btw, i play the octave which is higher and sounds better XP
Suggest correction
comments
print report bad tab
2 comments total.
0 reply
BowlboKhabra92 31 Sep 30, 2010 05:56 PM

its upside down. but good if i crank my head to read it!

0 reply
jonnythe5 10 Dec 10, 2013 04:43 PM

Thanks! It's very clear and I love the format! Well done.

guest
Wanna post a correction for this tab? Suggest correction