Oops, an error
Loading. Please wait.

Happiness Tab

version 2
version 2

Whole song

Interactive

7,215 views 9 this week
1 commentread comment
1 2 3 4 5
excellent!
x 7
add to favorites
launch autoscroll
font size
0
reset
how to read this tab
guitar tuner
Tab Pro tools
  • play this tab
  • loop segment
  • change instrument
  • show fretboard
  • metronome
×
Best way to learn
"Happiness"
Autoscroll
slow
fast
+/-
esc
set tempo
stop
Contributor
Difficulty
Tuning
intermediate
D A D G B E
-------------------------------------------------------------------------------
                             HAPPINESS - Three Days Grace
-------------------------------------------------------------------------------
Tabbed by: Jason Champagne

Based off of my video I made 3 days before the albums release here:

http://www.youtube.com/watch?v=J2QdLUiSWDo

E-mail: JCcrezXjasonX@gmail.com

Tuning: D-A-D-G-B-E

E|--------------------------------------------------------|
B|--------------------------------------------------------|
G|--------------------------------------------------------|
D|-0--0-7-0-0--7-0-0--7-0-3-2-0-0--0-7-0-0--7-0-3-2-0-----|
A|----------------------------------------------------1---|
D|--------------------------------------------------------|

E|--------------------------------------------------------|
B|--------------------------------------------------------|
G|--------------------------------------------------------|
D|-0--0-7-0-0--7-0-0--7-0-3-2-0-0--0-7-0-0--7-0-3-2-0-----|
A|----------------------------------------------------3---|
D|--------------------------------------------------------|

Main Riff

E|------------------------------------------------------------|
B|------------------------------------------------------------|
G|------------------------------------------------------------|
D|------------------------------------------------------------|
A|------------------------8-7-0------------------8-7-0-8--8-8-|
D|-0--0-7-0-0--7-0-0--7-0-------0--0-7-0-0--7--0-------8--8-8-|

E|---------------------------------------------------------------|
B|---------------------------------------------------------------|
G|---------------------------------------------------------------|
D|---------------------------------------------------------------|
A|------------------------8-7-0------------------8-7-0-10--10-10-|
D|-0--0-7-0-0--7-0-0--7-0-------0--0-7-0-0--7--0-------10--10-10-|

Verse

E|-17--17-17----------15-15-15-18--18-18----------15-15-15-|
B|-17--17-17----------15-15-15-18--18-18----------15-15-15-|
G|---------------------------------------------------------|
D|---------------------------------------------------------|
A|---------------------------------------------------------|
D|---------------------------------------------------------|x3

E|-17--17-17----------15-15-15-17--17-17-------------------|
B|-17--17-17----------15-15-15-17--17-17-------------------|
G|---------------------------------------------------------|
D|---------------------------------------------------------|
A|---------------------------------------------------------|
D|---------------------------------------------------------|

Chorus

E|-------------------------------------------------------|
B|-------------------------------------------------------|
G|-------------------------------------------------------|
D|-------------------------------------------------------|
A|-0-0-0-0-0-----3-3-3-3-3-----5-5-5-5-5-----8-----7-----|
D|-0-0-0-0-0-----3-3-3-3-3-----5-5-5-5-5-----8-----7-----|x2

Main Riff

E|------------------------------------------------------------|
B|------------------------------------------------------------|
G|------------------------------------------------------------|
D|------------------------------------------------------------|
A|------------------------8-7-0------------------8-7-0-8--8-8-|
D|-0--0-7-0-0--7-0-0--7-0-------0--0-7-0-0--7--0-------8--8-8-|

E|---------------------------------------------------------------|
B|---------------------------------------------------------------|
G|---------------------------------------------------------------|
D|---------------------------------------------------------------|
A|------------------------8-7-0------------------8-7-0-10--10-10-|
D|-0--0-7-0-0--7-0-0--7-0-------0--0-7-0-0--7--0-------10--10-10-|

Verse

E|-17--17-17----------15-15-15-18--18-18----------15-15-15-|
B|-17--17-17----------15-15-15-18--18-18----------15-15-15-|
G|---------------------------------------------------------|
D|---------------------------------------------------------|
A|---------------------------------------------------------|
D|---------------------------------------------------------|x3

E|-17--17-17----------15-15-15-17--17-17-------------------|
B|-17--17-17----------15-15-15-17--17-17-------------------|
G|---------------------------------------------------------|
D|---------------------------------------------------------|
A|---------------------------------------------------------|
D|---------------------------------------------------------|

Chorus

E|-------------------------------------------------------|
B|-------------------------------------------------------|
G|-------------------------------------------------------|
D|-------------------------------------------------------|
A|-0-0-0-0-0-----3-3-3-3-3-----5-5-5-5-5-----8-----7-----|
D|-0-0-0-0-0-----3-3-3-3-3-----5-5-5-5-5-----8-----7-----|x2

Bridge

E|-----------------------------------------------------------------------|
B|-----------------------------------------------------------------------|
G|-----------------------------------------------------------------------|
D|-----------------------------------------------------------------------|
A|-8--0--8--7---7---3---3---8--8--7--7--0--3---3--3---/10--10-10-10-10-0-|
D|-8--0--8--7---7---3---3---8--8--7--7--0--3---3--3---/10--10-10-10-10-0-| 

E|--------------------------------|
B|--------------------------------|
G|--------------------------------|
D|--------------------------------|
A|-8--0--8--7---7---3---3---8---8-|
D|-8--0--8--7---7---3---3---8---8-|

Main Riff

E|------------------------------------------------------------|
B|------------------------------------------------------------|
G|------------------------------------------------------------|
D|------------------------------------------------------------|
A|------------------------8-7-0------------------8-7-0-8--8-8-|
D|-0--0-7-0-0--7-0-0--7-0-------0--0-7-0-0--7--0-------8--8-8-|

E|---------------------------------------------------------------|
B|---------------------------------------------------------------|
G|---------------------------------------------------------------|
D|---------------------------------------------------------------|
A|------------------------8-7-0------------------8-7-0-10--10-10-|
D|-0--0-7-0-0--7-0-0--7-0-------0--0-7-0-0--7--0-------10--10-10-|

Chorus

E|--------------------------------------------------------|
B|--------------------------------------------------------|
G|--------------------------------------------------------|
D|--------------------------------------------------------|
A|-0--0-0--0-0---3--3-3--3-3---5--5-5--5-5-----8-----7----|
D|-0--0-0--0-0---3--3-3--3-3---5--5-5--5-5-----8-----7----|x2

Main Riff

E|------------------------------------------------------------|
B|------------------------------------------------------------|
G|------------------------------------------------------------|
D|------------------------------------------------------------|
A|------------------------8-7-0------------------8-7-0-8--8-8-|
D|-0--0-7-0-0--7-0-0--7-0-------0--0-7-0-0--7--0-------8--8-8-|

E|---------------------------------------------------------------|
B|---------------------------------------------------------------|
G|---------------------------------------------------------------|
D|---------------------------------------------------------------|
A|------------------------8-7-0------------------8-7-0-10--10-10-|
D|-0--0-7-0-0--7-0-0--7-0-------0--0-7-0-0--7--0-------10--10-10-|

E|------------------------------------------------------------|
B|------------------------------------------------------------|
G|------------------------------------------------------------|
D|------------------------------------------------------------|
A|------------------------8-7-0------------------8-7-0-8--8-8-|
D|-0--0-7-0-0--7-0-0--7-0-------0--0-7-0-0--7--0-------8--8-8-|

E|----------------------------------------------------------------|
B|----------------------------------------------------------------|
G|----------------------------------------------------------------|
D|----------------------------------------------------------------|
A|------------------------8-7-0------------------8-7-0-10--10-10\-|
D|-0--0-7-0-0--7-0-0--7-0-------0--0-7-0-0--7--0-------10--10-10\-|

************************************

| /   slide up
| \   slide down
| h   hammer-on
| p   pull-off
| ~   vibrato
| +   harmonic
| x   Mute note
| b   Bend
| pb  Pre-bend
| br  Bend release
| pbr Pre-bend release
| brb Bend release bend

************************************
comments
print report bad tab
1 comment total.
-1 reply
Deathmetal313 wrote on March 26 2013, 06:06 pm

This Is Badass the world needs people like you lol anyways it be awesome if you can make a tab for the song give me a reason

I want to post or [tab]
guest
You may want to rate the tab now too:
select rating
Please do not post tabs as comments. Select "correction" instead!