Oops, an error
Loading. Please wait.

Home Bass Tab

version 3
version 3
1,507 views 6 this week
no commentswrite comment
1 2 3 4 5
please rate
add to favorites
launch autoscroll
font size
0
reset
guitar tuner
Autoscroll
slow
fast
+/-
esc
set tempo
stop
Help us to improve Ultimate-Guitar.com Take our survey!
×
Author
Difficulty
Tuning
novice
C G C F A D

This Can be played on:
-----------------------------------------------------------------------------
			     Home - Three Days Grace
-----------------------------------------------------------------------------

4 string with Drop-C CGCF

OR

5-string with CEADG

...as the tuning with the B tuned up, it wont break ur string unless you got very very 
strings (.140 gauge(rotosound) which are more a Low A), but it'll be fine.

Only the C-string needs to be used, the stuff in brackets can be played instead, being 
tabbing this for the 5-string you will have to work out where to play the notes in 
if you wish to play them, but the low c is all you need tbh.

This song took me a while to figure out because this is the first tab ive done by ear (i 
tab a diff song b4 but it never got accepted)... any suggestions just leave them below

Tabbed By : JabyMason


Intro (note: 10 is ten not one and zero)
G|--------------------------------------------------------------------------|
D|--------------------------------------------------------------------------|
A|--------------------------------------------------------------------------|
E|-----------------(4-4)----------------------------------------(6--6)------|
C|0-0------0-0------8-8------5-5------0-0------0-0------1-1------10-10------|

G|--------------------------------------------------------------------------|
D|--------------------------------------------------------------------------|
A|--------------------------------------------------------------------------|
E|-----------------(4-4)----------------------------------------(6--6)------|
C|0-0-XX-X-0-0-XX-X-8-8-XX-X-5-5-XX-X-0-0-XX-X-0-0-XX-X-1-1-XX-X-10-10-XX-X-|


Verse pt 1
G|--------------------------------|
D|--------------------------------|
A|--------------------------------|
E|--------------------------------|
C|0-0-0-0-0-0-0-0-8-8-8-8-8-8-8-8-|

Verse pt 2 X2
G|--------------------------------------|
D|--------------------------------------|
A|--------------------------------------|
E|--------------------------------------|
C|0--h3p--0--hp5--0--h7p--0--8--10--12--|

Repeat both Verse parts (pt 1 then the doubled pt 2)

Then Play Verse pt 1 through once

Chorus
G|--------------------------------------------------------------------------|
D|--------------------------------------------------------------------------|
A|--------------------------------------------------------------------------|
E|--------------------------------------------------------------------------|
C|--0------8----5-----0------1----10----0------8----5-----0------1----10----|

G|--------------------------------------------------------------------------|
D|--------------------------------------------------------------------------|
A|--------------------------------------------------------------------------|
E|-----------------(4-4)----------------------------------------(6--6)------|
C|0-0------0-0------8-8------5-5------0-0------0-0------1-1------10-10------|

Intrelude X2
G|--------------------------------------|
D|--------------------------------------|
A|--------------------------------------|
E|--------------------------------------|
C|0--h3p--0--hp5--0--h7p--0--8--10--12--|

Verse pt 1
G|--------------------------------|
D|--------------------------------|
A|--------------------------------|
E|--------------------------------|
C|0-0-0-0-0-0-0-0-8-8-8-8-8-8-8-8-|

Verse pt 2 X2
G|--------------------------------------|
D|--------------------------------------|
A|--------------------------------------|
E|--------------------------------------|
C|0--h3p--0--hp5--0--h7p--0--8--10--12--|

Repeat both Verse parts (pt 1 then the doubled pt 2)

Then Play Verse pt 1 through once

Chorus
G|--------------------------------------------------------------------------|
D|--------------------------------------------------------------------------|
A|--------------------------------------------------------------------------|
E|--------------------------------------------------------------------------|
C|--0------8----5-----0------1----10----0------8----5-----0------1----10----|

G|--------------------------------------------------------------------------|
D|--------------------------------------------------------------------------|
A|--------------------------------------------------------------------------|
E|-----------------(4-4)----------------------------------------(6--6)------|
C|0-0------0-0------8-8------5-5------0-0------0-0------1-1------10-10------|

Bridge:
E|-----|       |-*-|             |------------|
C|--0~-|       |-*-|             |--1--1--1~--|
            (See Below)       (Last bit of bridge)


* = there is something that could be distorted bass, but its sounds more like a guitar 
i havent tabbed it

Chorus
G|--------------------------------------------------------------------------|
D|--------------------------------------------------------------------------|
A|--------------------------------------------------------------------------|
E|--------------------------------------------------------------------------|
C|--0------8----5-----0------1----10----0------8----5-----0------1----10----|

G|--------------------------------------------------------------------------|
D|--------------------------------------------------------------------------|
A|--------------------------------------------------------------------------|
E|-----------------(4-4)----------------------------------------(6--6)------|
C|0-0------0-0------8-8------5-5------0-0------0-0------1-1------10-10------|

Outro
G|--------------------------------------------------------------------------|
D|--------------------------------------------------------------------------|
A|--------------------------------------------------------------------------|
E|-----------------(4-4)----------------------------------------(6--6)------|
C|0-0------0-0------8-8------5-5------0-0------0-0------1-1------10-10------|

G|--------------------------------|
D|--------------------------------|
A|--------------------------------|
E|-----------------(4-4)----------|
C|0-0------0-0------8-8------5-5--|


| /  slide up
| \  slide down
| h  hammer-on
| p  pull-off
| ~  vibrato
| +  harmonic
| x  Mute note
=============================================================================
Suggest correction
What's this?
You can suggest a correction to this tab. Community and Mods will review your correction and vote to approve or reject it.
comments
We did not receive enough feedback on this tab! Please rate:
print report bad tab
1 2 3 4 5
guest
You may want to rate the tab now too:
select rating
Please do not post tabs as comments. Select "correction" instead!