Oops, an error
Loading. Please wait.

I Dont Care Bass Tab

version 1
version 1

Whole song

Interactive

4,802 views 1 this week
1 commentread comment
1 2 3 4 5
excellent!
x 3
add to favorites
launch autoscroll
font size
0
reset
guitar tuner
Tab Pro tools
  • play this tab
  • loop segment
  • change instrument
  • show fretboard
  • metronome
Autoscroll
slow
fast
+/-
esc
set tempo
stop
Contributor
Tuning
D A D G B E
-------------------------------------------------------------------------------
			     I DON'T CARE - Three Days Grace
-------------------------------------------------------------------------------

Tabbed By : mariewong

Tuning: Drop D


Intro:
G|-------------|      |---------------------------------|
D|-------------|      |---3----1~-----------------------|
A|----------4~-|  OR  |-33--111------4------------------|
D|-3~-3~-1~----|      |------------66--5556~--75~-7653~-|


Verse:
I try to make it through my life
In my way
There's you
I try to make it through these lies
That's all I do
G|--------------|
D|--------------|
A|--------------|   [x2]
D|-3~-56~-5~-3~-|

OR

G|-----------------|-----------------|
D|--3---6---5---3--|--3---6---5---3--|
A|-----------------|-----------------|
D|-3---6---5---3---|-3---6---5---3---|


Pre-chorus:
Just don't deny it
Just don't deny it
And deal with it
Yeah deal with it
You try to break me
You wanna break me
Bit by bit
That's just part of it
G|--------------|
D|--------------|
A|--------------|   [x2]
D|-0~-23~-2~-0~-|

OR

G|--------------------------------|
D|--------------------------------|
A|----110-----110-----110-----110-|  [x2]
D|-00------33------22------00-----|

=====================================

G|-----|
D|-----|
A|-----|
D|-2-3-|


Chorus:
If you were dead or still alive
I don't care
I don't care
And all the things you left behind
I don't care
I don't care
G|----------------------------------|
D|----------------------------------|
A|-----------------0000000011111100-|
D|-0000000233333335-----------------|

G|----------------------------------|
D|----------------------------------|
A|-----------------0000000011111111-|
D|-0000000233333335-----------------|


Intro (variation):
G|---------|      |---------------------------------|
D|---------|      |---3----1~-----------------------|
A|------4~-|  OR  |-33--111------4------------------|
D|-3~-1~---|      |------------66--5556~--75~-7653~-|


Verse:
I try to make you see my side
Always trying to stay in line
But your eyes see right through
That's all they do
I'm getting tired of this sh**
I got no room when it's like this
What you want of me
Just deal with it so
G|-----------------------------|
D|-----------------------------|
A|---------------333-33-111-11-|  
D|-000-00-000-00---------------|

G|---------------------------------------------|
D|---------------------------------------------|
A|-----------------------333-333-33-111-111-11-|  
D|-000-000-00-000-000-00-----------------------|

G|-----|
D|-----|
A|-3-4-|
D|-----|


Chorus:
If you were dead or still alive
I don't care
I don't care
And all the things you left behind
I don't care
I don't care
G|----------------------------------|
D|----------------------------------|
A|-----------------0000000011111100-|
D|-0000000233333335-----------------|

G|----------------------------------|
D|----------------------------------|
A|-----------------0000000011111100-|
D|-0000000233333335-----------------|

They're taking care of me
They're taking care of me
You won't be there for me
You won't be there for me
G|-------------------------------------|
D|-------------------------------------|
A|-------------------11111111----------|
D|-00000000-33333333----------55555577-|

G|-------------------------------------|
D|-------------------------------------|
A|-------------------11111111-33333333-|
D|-00000000-33333333-------------------|

=========================================

Bridge:
G|---|
D|---|
A|---|
D|-0-|

OR

G|----------------------------------------|
D|---12---10--8--7--5--3--2--0------------|
A|-12---10---8--7--5--3--1--0----3--1-----|  [x3]
D|------------------------------5--3--2~--|

G|----------------------------------9-----|
D|------------0--2--3--5--7--8----10-10~--|
A|--0--1--3--0--1--3--5--7--8---10--------|
D|-2--3--5--------------------------------|


Chorus:
If you were dead or still alive
I don't care
I don't care
And all the things you left behind
I don't care
I don't care
G|----------------------------------|
D|----------------------------------|
A|-----------------0000000011111100-|
D|-0000000233333335-----------------|

G|----------------------------------|
D|----------------------------------|
A|-----------------0000000011111100-|
D|-0000000233333335-----------------|

If you were dead or still alive
I don't care
I don't care
And all the things you left behind
I don't care
I don't care
G|----------------------------------|
D|----------------------------------|
A|-----------------0000000011111100-|
D|-0000000233333335-----------------|

G|-----------------------------------------|
D|-----------------------------------------|
A|-----------------0000000011111111--0~----|
D|-0000000233333335---------------------0~-|



| /  slide up
| \  slide down
| h  hammer-on
| p  pull-off
| ~  vibrato
| +  harmonic
| x  Mute note
===============================================================================
comments
We did not receive enough feedback on this tab! Please rate:
print report bad tab
1 2 3 4 5
1 comment total.
+1 reply
TheThirdDay wrote on May 16 2010, 03:51 am

This song is not by Three Days Grace. It's by Apocalypta featuring Adam Gontier on vocals.

I want to post or [tab]
guest
You may want to rate the tab now too:
select rating
Please do not post tabs as comments. Select "correction" instead!